  0
SECTION
  2
HEADER
  9
$ACADVER
  1
AC1014
  9
$ACADMAINTVER
 70
     9
  9
$DWGCODEPAGE
  3
ANSI_1252
  9
$INSBASE
 10
0.0
 20
0.0
 30
0.0
  9
$EXTMIN
 10
1.000000000000000E+20
 20
1.000000000000000E+20
 30
1.000000000000000E+20
  9
$EXTMAX
 10
-1.000000000000000E+20
 20
-1.000000000000000E+20
 30
-1.000000000000000E+20
  9
$LIMMIN
 10
0.0
 20
0.0
  9
$LIMMAX
 10
12.0
 20
9.0
  9
$ORTHOMODE
 70
     0
  9
$REGENMODE
 70
     1
  9
$FILLMODE
 70
     1
  9
$QTEXTMODE
 70
     0
  9
$MIRRTEXT
 70
     1
  9
$DRAGMODE
 70
     2
  9
$LTSCALE
 40
1.0
  9
$OSMODE
 70
    37
  9
$ATTMODE
 70
     1
  9
$TEXTSIZE
 40
0.2
  9
$TRACEWID
 40
0.05
  9
$TEXTSTYLE
  7
STANDARD
  9
$CLAYER
  8
0
  9
$CELTYPE
  6
BYLAYER
  9
$CECOLOR
 62
   256
  9
$CELTSCALE
 40
1.0
  9
$DELOBJ
 70
     1
  9
$DISPSILH
 70
     0
  9
$DIMSCALE
 40
1.0
  9
$DIMASZ
 40
0.18
  9
$DIMEXO
 40
0.0625
  9
$DIMDLI
 40
0.38
  9
$DIMRND
 40
0.0
  9
$DIMDLE
 40
0.0
  9
$DIMEXE
 40
0.18
  9
$DIMTP
 40
0.0
  9
$DIMTM
 40
0.0
  9
$DIMTXT
 40
0.18
  9
$DIMCEN
 40
0.09
  9
$DIMTSZ
 40
0.0
  9
$DIMTOL
 70
     0
  9
$DIMLIM
 70
     0
  9
$DIMTIH
 70
     1
  9
$DIMTOH
 70
     1
  9
$DIMSE1
 70
     0
  9
$DIMSE2
 70
     0
  9
$DIMTAD
 70
     0
  9
$DIMZIN
 70
     0
  9
$DIMBLK
  1

  9
$DIMASO
 70
     1
  9
$DIMSHO
 70
     1
  9
$DIMPOST
  1

  9
$DIMAPOST
  1

  9
$DIMALT
 70
     0
  9
$DIMALTD
 70
     2
  9
$DIMALTF
 40
25.4
  9
$DIMLFAC
 40
1.0
  9
$DIMTOFL
 70
     0
  9
$DIMTVP
 40
0.0
  9
$DIMTIX
 70
     0
  9
$DIMSOXD
 70
     0
  9
$DIMSAH
 70
     0
  9
$DIMBLK1
  1

  9
$DIMBLK2
  1

  9
$DIMSTYLE
  2
STANDARD
  9
$DIMCLRD
 70
     0
  9
$DIMCLRE
 70
     0
  9
$DIMCLRT
 70
     0
  9
$DIMTFAC
 40
1.0
  9
$DIMGAP
 40
0.09
  9
$DIMJUST
 70
     0
  9
$DIMSD1
 70
     0
  9
$DIMSD2
 70
     0
  9
$DIMTOLJ
 70
     1
  9
$DIMTZIN
 70
     0
  9
$DIMALTZ
 70
     0
  9
$DIMALTTZ
 70
     0
  9
$DIMFIT
 70
     3
  9
$DIMUPT
 70
     0
  9
$DIMUNIT
 70
     2
  9
$DIMDEC
 70
     4
  9
$DIMTDEC
 70
     4
  9
$DIMALTU
 70
     2
  9
$DIMALTTD
 70
     2
  9
$DIMTXSTY
  7
STANDARD
  9
$DIMAUNIT
 70
     0
  9
$LUNITS
 70
     2
  9
$LUPREC
 70
     4
  9
$SKETCHINC
 40
0.1
  9
$FILLETRAD
 40
0.5
  9
$AUNITS
 70
     0
  9
$AUPREC
 70
     0
  9
$MENU
  1
.
  9
$ELEVATION
 40
0.0
  9
$PELEVATION
 40
0.0
  9
$THICKNESS
 40
0.0
  9
$LIMCHECK
 70
     0
  9
$CHAMFERA
 40
0.0
  9
$CHAMFERB
 40
0.0
  9
$CHAMFERC
 40
0.0
  9
$CHAMFERD
 40
0.0
  9
$SKPOLY
 70
     0
  9
$TDCREATE
 40
2457484.499747153
  9
$TDUPDATE
 40
2457484.499747952
  9
$TDINDWG
 40
0.0000000116
  9
$TDUSRTIMER
 40
0.0000000116
  9
$USRTIMER
 70
     1
  9
$ANGBASE
 50
0.0
  9
$ANGDIR
 70
     0
  9
$PDMODE
 70
     0
  9
$PDSIZE
 40
0.0
  9
$PLINEWID
 40
0.0
  9
$COORDS
 70
     1
  9
$SPLFRAME
 70
     0
  9
$SPLINETYPE
 70
     6
  9
$SPLINESEGS
 70
     8
  9
$ATTDIA
 70
     0
  9
$ATTREQ
 70
     1
  9
$HANDLING
 70
     1
  9
$HANDSEED
  5
592
  9
$SURFTAB1
 70
     6
  9
$SURFTAB2
 70
     6
  9
$SURFTYPE
 70
     6
  9
$SURFU
 70
     6
  9
$SURFV
 70
     6
  9
$UCSNAME
  2

  9
$UCSORG
 10
0.0
 20
0.0
 30
0.0
  9
$UCSXDIR
 10
1.0
 20
0.0
 30
0.0
  9
$UCSYDIR
 10
0.0
 20
1.0
 30
0.0
  9
$PUCSNAME
  2

  9
$PUCSORG
 10
0.0
 20
0.0
 30
0.0
  9
$PUCSXDIR
 10
1.0
 20
0.0
 30
0.0
  9
$PUCSYDIR
 10
0.0
 20
1.0
 30
0.0
  9
$USERI1
 70
     0
  9
$USERI2
 70
     0
  9
$USERI3
 70
     0
  9
$USERI4
 70
     0
  9
$USERI5
 70
     0
  9
$USERR1
 40
0.0
  9
$USERR2
 40
0.0
  9
$USERR3
 40
0.0
  9
$USERR4
 40
0.0
  9
$USERR5
 40
0.0
  9
$WORLDVIEW
 70
     1
  9
$SHADEDGE
 70
     3
  9
$SHADEDIF
 70
    70
  9
$TILEMODE
 70
     1
  9
$MAXACTVP
 70
    64
  9
$PINSBASE
 10
0.0
 20
0.0
 30
0.0
  9
$PLIMCHECK
 70
     0
  9
$PEXTMIN
 10
1.000000000000000E+20
 20
1.000000000000000E+20
 30
1.000000000000000E+20
  9
$PEXTMAX
 10
-1.000000000000000E+20
 20
-1.000000000000000E+20
 30
-1.000000000000000E+20
  9
$PLIMMIN
 10
0.0
 20
0.0
  9
$PLIMMAX
 10
12.0
 20
9.0
  9
$UNITMODE
 70
     0
  9
$VISRETAIN
 70
     1
  9
$PLINEGEN
 70
     0
  9
$PSLTSCALE
 70
     1
  9
$TREEDEPTH
 70
  3020
  9
$PICKSTYLE
 70
     1
  9
$CMLSTYLE
  2
STANDARD
  9
$CMLJUST
 70
     0
  9
$CMLSCALE
 40
1.0
  9
$PROXYGRAPHICS
 70
     1
  9
$MEASUREMENT
 70
     1
  0
ENDSEC
  0
SECTION
  2
CLASSES
  0
CLASS
  1
ACDBDICTIONARYWDFLT
  2
AcDbDictionaryWithDefault
  3
ObjectDBX Classes
 90
        0
280
     0
281
     0
  0
CLASS
  1
VISUALSTYLE
  2
AcDbVisualStyle
  3
ObjectDBX Classes
 90
     4095
280
     0
281
     0
  0
CLASS
  1
MATERIAL
  2
AcDbMaterial
  3
ObjectDBX Classes
 90
     1153
280
     0
281
     0
  0
CLASS
  1
SCALE
  2
AcDbScale
  3
ObjectDBX Classes
 90
     1153
280
     0
281
     0
  0
CLASS
  1
SUN
  2
AcDbSun
  3
SCENEOE
 90
     1153
280
     0
281
     0
  0
CLASS
  1
DICTIONARYVAR
  2
AcDbDictionaryVar
  3
ObjectDBX Classes
 90
        0
280
     0
281
     0
  0
CLASS
  1
XRECORD
  2
AcDbXrecord
  3
ObjectDBX Classes
 90
        0
280
     0
281
     0
  0
CLASS
  1
LWPOLYLINE
  2
AcDbPolyline
  3
ObjectDBX Classes
 90
        0
280
     0
281
     1
  0
CLASS
  1
HATCH
  2
AcDbHatch
  3
ObjectDBX Classes
 90
        0
280
     0
281
     1
  0
CLASS
  1
ACDBPLACEHOLDER
  2
AcDbPlaceHolder
  3
ObjectDBX Classes
 90
        0
280
     0
281
     0
  0
CLASS
  1
LAYOUT
  2
AcDbLayout
  3
ObjectDBX Classes
 90
        0
280
     0
281
     0
  0
ENDSEC
  0
SECTION
  2
TABLES
  0
TABLE
  2
VPORT
  5
8
102
{ACAD_XDICTIONARY
360
588
102
}
330
0
100
AcDbSymbolTable
 70
     1
  0
VPORT
  5
29
330
8
100
AcDbSymbolTableRecord
100
AcDbViewportTableRecord
  2
*ACTIVE
 70
     0
 10
0.0
 20
0.0
 11
1.0
 21
1.0
 12
0.0
 22
0.0
 13
0.0
 23
0.0
 14
0.5
 24
0.5
 15
0.5
 25
0.5
 16
0.0
 26
0.0
 36
1.0
 17
0.0
 27
0.0
 37
-1000.0
 40
68.7345457760485
 41
2.064655172413793
 42
50.0
 43
53.49763091699125
 44
93.3259933429893
 50
0.0
 51
0.0
 71
     0
 72
   100
 73
     1
 74
     3
 75
     0
 76
     0
 77
     0
 78
     0
  0
ENDTAB
  0
TABLE
  2
LTYPE
  5
5
330
0
100
AcDbSymbolTable
 70
     1
  0
LTYPE
  5
14
330
5
100
AcDbSymbolTableRecord
100
AcDbLinetypeTableRecord
  2
BYBLOCK
 70
     0
  3

 72
    65
 73
     0
 40
0.0
  0
LTYPE
  5
15
330
5
100
AcDbSymbolTableRecord
100
AcDbLinetypeTableRecord
  2
BYLAYER
 70
     0
  3

 72
    65
 73
     0
 40
0.0
  0
LTYPE
  5
16
330
5
100
AcDbSymbolTableRecord
100
AcDbLinetypeTableRecord
  2
CONTINUOUS
 70
     0
  3
Solid line
 72
    65
 73
     0
 40
0.0
  0
ENDTAB
  0
TABLE
  2
LAYER
  5
2
330
0
100
AcDbSymbolTable
 70
     3
  0
LAYER
  5
10
330
2
100
AcDbSymbolTableRecord
100
AcDbLayerTableRecord
  2
0
 70
     0
 62
     7
  6
CONTINUOUS
  0
LAYER
  5
6A
330
2
100
AcDbSymbolTableRecord
100
AcDbLayerTableRecord
  2
PROFILEEDGES
 70
     0
 62
     7
  6
CONTINUOUS
  0
LAYER
  5
6B
330
2
100
AcDbSymbolTableRecord
100
AcDbLayerTableRecord
  2
SECTIONCUTEDGES
 70
     0
 62
     7
  6
CONTINUOUS
  0
ENDTAB
  0
TABLE
  2
STYLE
  5
3
330
0
100
AcDbSymbolTable
 70
     1
  0
STYLE
  5
11
330
3
100
AcDbSymbolTableRecord
100
AcDbTextStyleTableRecord
  2
STANDARD
 70
     0
 40
0.0
 41
1.0
 50
0.0
 71
     0
 42
0.2
  3
txt
  4

  0
ENDTAB
  0
TABLE
  2
VIEW
  5
6
330
0
100
AcDbSymbolTable
 70
     0
  0
ENDTAB
  0
TABLE
  2
UCS
  5
7
330
0
100
AcDbSymbolTable
 70
     0
  0
ENDTAB
  0
TABLE
  2
APPID
  5
9
330
0
100
AcDbSymbolTable
 70
     1
  0
APPID
  5
12
330
9
100
AcDbSymbolTableRecord
100
AcDbRegAppTableRecord
  2
ACAD
 70
     0
  0
ENDTAB
  0
TABLE
  2
DIMSTYLE
  5
A
330
0
100
AcDbSymbolTable
 70
     1
  0
DIMSTYLE
105
27
330
A
100
AcDbSymbolTableRecord
100
AcDbDimStyleTableRecord
  2
STANDARD
 70
     0
  3

  4

  5

  6

  7

 40
1.0
 41
0.18
 42
0.0625
 43
0.38
 44
0.18
 45
0.0
 46
0.0
 47
0.0
 48
0.0
140
0.18
141
0.09
142
0.0
143
25.4
144
1.0
145
0.0
146
1.0
147
0.09
 71
     0
 72
     0
 73
     1
 74
     1
 75
     0
 76
     0
 77
     0
 78
     0
170
     0
171
     2
172
     0
173
     0
174
     0
175
     0
176
     0
177
     0
178
     0
270
     2
271
     4
272
     4
273
     2
274
     2
340
11
275
     0
280
     0
281
     0
282
     0
283
     1
284
     0
285
     0
286
     0
287
     3
288
     0
  0
ENDTAB
  0
TABLE
  2
BLOCK_RECORD
  5
1
330
0
100
AcDbSymbolTable
 70
     1
  0
BLOCK_RECORD
  5
1F
330
1
100
AcDbSymbolTableRecord
100
AcDbBlockTableRecord
  2
*MODEL_SPACE
  0
BLOCK_RECORD
  5
1B
330
1
100
AcDbSymbolTableRecord
100
AcDbBlockTableRecord
  2
*PAPER_SPACE
  0
ENDTAB
  0
ENDSEC
  0
SECTION
  2
BLOCKS
  0
BLOCK
  5
20
330
1F
100
AcDbEntity
  8
0
100
AcDbBlockBegin
  2
*MODEL_SPACE
 70
     0
 10
0.0
 20
0.0
 30
0.0
  3
*MODEL_SPACE
  1

  0
ENDBLK
  5
21
330
1F
100
AcDbEntity
  8
0
100
AcDbBlockEnd
  0
BLOCK
  5
1C
330
1B
100
AcDbEntity
 67
     1
  8
0
100
AcDbBlockBegin
  2
*PAPER_SPACE
 70
     0
 10
0.0
 20
0.0
 30
0.0
  3
*PAPER_SPACE
  1

  0
ENDBLK
  5
1D
330
1B
100
AcDbEntity
 67
     1
  8
0
100
AcDbBlockEnd
  0
ENDSEC
  0
SECTION
  2
ENTITIES
  0
LINE
  5
6C
330
1F
100
AcDbEntity
  8
0
100
AcDbLine
 10
-20.57521714745351
 20
15.03914408048481
 30
0.0
 11
-21.2052157474535
 21
15.03914408048481
 31
0.0
  0
LINE
  5
6D
330
1F
100
AcDbEntity
  8
0
100
AcDbLine
 10
-23.3052159474535
 20
17.76914448048481
 30
0.0
 11
-23.3052159474535
 21
17.13914428048481
 31
0.0
  0
LINE
  5
6E
330
1F
100
AcDbEntity
  8
0
100
AcDbLine
 10
-24.01490534745351
 20
24.5245918804848
 30
0.0
 11
-24.01490534745351
 21
24.61637948048481
 31
0.0
  0
LINE
  5
6F
330
1F
100
AcDbEntity
  8
0
100
AcDbLine
 10
-24.01490534745351
 20
24.61637948048481
 30
0.0
 11
-24.71994834745351
 21
24.61637948048481
 31
0.0
  0
LINE
  5
70
330
1F
100
AcDbEntity
  8
0
100
AcDbLine
 10
-24.71994834745351
 20
24.61637948048481
 30
0.0
 11
-24.71994834745351
 21
24.5477912804848
 31
0.0
  0
LINE
  5
71
330
1F
100
AcDbEntity
  8
0
100
AcDbLine
 10
-24.71994834745351
 20
24.5477912804848
 30
0.0
 11
-24.65842174745351
 21
24.52963628048481
 31
0.0
  0
LINE
  5
72
330
1F
100
AcDbEntity
  8
0
100
AcDbLine
 10
-24.65842174745351
 20
24.52963628048481
 30
0.0
 11
-24.61706594745351
 21
24.4933234804848
 31
0.0
  0
LINE
  5
73
330
1F
100
AcDbEntity
  8
0
100
AcDbLine
 10
-24.61706594745351
 20
24.4933234804848
 30
0.0
 11
-24.59285934745351
 21
24.43784868048481
 31
0.0
  0
LINE
  5
74
330
1F
100
AcDbEntity
  8
0
100
AcDbLine
 10
-24.59285934745351
 20
24.43784868048481
 30
0.0
 11
-24.58479054745351
 21
24.36119148048481
 31
0.0
  0
LINE
  5
75
330
1F
100
AcDbEntity
  8
0
100
AcDbLine
 10
-24.58479054745351
 20
24.36119148048481
 30
0.0
 11
-24.51317654745352
 21
24.36119148048481
 31
0.0
  0
LINE
  5
76
330
1F
100
AcDbEntity
  8
0
100
AcDbLine
 10
-24.51317654745352
 20
24.36119148048481
 30
0.0
 11
-24.51317654745352
 21
24.5245918804848
 31
0.0
  0
LINE
  5
77
330
1F
100
AcDbEntity
  8
0
100
AcDbLine
 10
-24.51317654745352
 20
24.5245918804848
 30
0.0
 11
-24.01490534745351
 21
24.5245918804848
 31
0.0
  0
LINE
  5
78
330
1F
100
AcDbEntity
  8
0
100
AcDbLine
 10
-24.01490534745351
 20
25.22035588048481
 30
0.0
 11
-24.01490534745351
 21
25.3595496804848
 31
0.0
  0
LINE
  5
79
330
1F
100
AcDbEntity
  8
0
100
AcDbLine
 10
-24.01490534745351
 20
25.3595496804848
 30
0.0
 11
-24.16519214745351
 21
25.3595496804848
 31
0.0
  0
LINE
  5
7A
330
1F
100
AcDbEntity
  8
0
100
AcDbLine
 10
-24.16519214745351
 20
25.3595496804848
 30
0.0
 11
-24.16519214745351
 21
25.22035588048481
 31
0.0
  0
LINE
  5
7B
330
1F
100
AcDbEntity
  8
0
100
AcDbLine
 10
-24.16519214745351
 20
25.22035588048481
 30
0.0
 11
-24.01490534745351
 21
25.22035588048481
 31
0.0
  0
LINE
  5
7C
330
1F
100
AcDbEntity
  8
0
100
AcDbLine
 10
-24.52628834745351
 20
26.27923048048482
 30
0.0
 11
-24.60798854745351
 21
26.26006848048483
 31
0.0
  0
LINE
  5
7D
330
1F
100
AcDbEntity
  8
0
100
AcDbLine
 10
-24.60798854745351
 20
26.26006848048483
 30
0.0
 11
-24.66850794745351
 21
26.2156866804848
 31
0.0
  0
LINE
  5
7E
330
1F
100
AcDbEntity
  8
0
100
AcDbLine
 10
-24.66850794745351
 20
26.2156866804848
 30
0.0
 11
-24.70683634745351
 21
26.14709848048481
 31
0.0
  0
LINE
  5
7F
330
1F
100
AcDbEntity
  8
0
100
AcDbLine
 10
-24.70683634745351
 20
26.14709848048481
 30
0.0
 11
-24.71994834745351
 21
26.05833808048482
 31
0.0
  0
LINE
  5
80
330
1F
100
AcDbEntity
  8
0
100
AcDbLine
 10
-24.71994834745351
 20
26.05833808048482
 30
0.0
 11
-24.71288814745351
 21
25.9988288804848
 31
0.0
  0
LINE
  5
81
330
1F
100
AcDbEntity
  8
0
100
AcDbLine
 10
-24.71288814745351
 20
25.9988288804848
 30
0.0
 11
-24.69372454745351
 21
25.94738848048481
 31
0.0
  0
LINE
  5
82
330
1F
100
AcDbEntity
  8
0
100
AcDbLine
 10
-24.69372454745351
 20
25.94738848048481
 30
0.0
 11
-24.66245614745351
 21
25.9019996804848
 31
0.0
  0
LINE
  5
83
330
1F
100
AcDbEntity
  8
0
100
AcDbLine
 10
-24.66245614745351
 20
25.9019996804848
 30
0.0
 11
-24.61807614745351
 21
25.86366948048481
 31
0.0
  0
LINE
  5
84
330
1F
100
AcDbEntity
  8
0
100
AcDbLine
 10
-24.61807614745351
 20
25.86366948048481
 30
0.0
 11
-24.56259974745351
 21
25.83341148048482
 31
0.0
  0
LINE
  5
85
330
1F
100
AcDbEntity
  8
0
100
AcDbLine
 10
-24.56259974745351
 20
25.83341148048482
 30
0.0
 11
-24.49501994745351
 21
25.8112190804848
 31
0.0
  0
LINE
  5
86
330
1F
100
AcDbEntity
  8
0
100
AcDbLine
 10
-24.49501994745351
 20
25.8112190804848
 30
0.0
 11
-24.41533714745351
 21
25.79709848048482
 31
0.0
  0
LINE
  5
87
330
1F
100
AcDbEntity
  8
0
100
AcDbLine
 10
-24.41533714745351
 20
25.79709848048482
 30
0.0
 11
-24.32556814745351
 21
25.79306408048481
 31
0.0
  0
LINE
  5
88
330
1F
100
AcDbEntity
  8
0
100
AcDbLine
 10
-24.32556814745351
 20
25.79306408048481
 30
0.0
 11
-24.18233994745351
 21
25.80920188048481
 31
0.0
  0
LINE
  5
89
330
1F
100
AcDbEntity
  8
0
100
AcDbLine
 10
-24.18233994745351
 20
25.80920188048481
 30
0.0
 11
-24.07844894745351
 21
25.85862808048481
 31
0.0
  0
LINE
  5
8A
330
1F
100
AcDbEntity
  8
0
100
AcDbLine
 10
-24.07844894745351
 20
25.85862808048481
 30
0.0
 11
-24.01591534745351
 21
25.9383094804848
 31
0.0
  0
LINE
  5
8B
330
1F
100
AcDbEntity
  8
0
100
AcDbLine
 10
-24.01591534745351
 20
25.9383094804848
 30
0.0
 11
-23.99473314745351
 21
26.04724508048481
 31
0.0
  0
LINE
  5
8C
330
1F
100
AcDbEntity
  8
0
100
AcDbLine
 10
-23.99473314745351
 20
26.04724508048481
 30
0.0
 11
-24.01288814745351
 21
26.1450812804848
 31
0.0
  0
LINE
  5
8D
330
1F
100
AcDbEntity
  8
0
100
AcDbLine
 10
-24.01288814745351
 20
26.1450812804848
 30
0.0
 11
-24.06029414745351
 21
26.2197212804848
 31
0.0
  0
LINE
  5
8E
330
1F
100
AcDbEntity
  8
0
100
AcDbLine
 10
-24.06029414745351
 20
26.2197212804848
 30
0.0
 11
-24.13493394745351
 21
26.26813728048482
 31
0.0
  0
LINE
  5
8F
330
1F
100
AcDbEntity
  8
0
100
AcDbLine
 10
-24.13493394745351
 20
26.26813728048482
 30
0.0
 11
-24.22974754745351
 21
26.28528508048483
 31
0.0
  0
LINE
  5
90
330
1F
100
AcDbEntity
  8
0
100
AcDbLine
 10
-24.22974754745351
 20
26.28528508048483
 30
0.0
 11
-24.32556814745351
 21
26.26813728048482
 31
0.0
  0
LINE
  5
91
330
1F
100
AcDbEntity
  8
0
100
AcDbLine
 10
-24.32556814745351
 20
26.26813728048482
 30
0.0
 11
-24.39919934745351
 21
26.22173848048481
 31
0.0
  0
LINE
  5
92
330
1F
100
AcDbEntity
  8
0
100
AcDbLine
 10
-24.39919934745351
 20
26.22173848048481
 30
0.0
 11
-24.44559674745351
 21
26.1501258804848
 31
0.0
  0
LINE
  5
93
330
1F
100
AcDbEntity
  8
0
100
AcDbLine
 10
-24.44559674745351
 20
26.1501258804848
 30
0.0
 11
-24.46173594745351
 21
26.0613624804848
 31
0.0
  0
LINE
  5
94
330
1F
100
AcDbEntity
  8
0
100
AcDbLine
 10
-24.46173594745351
 20
26.0613624804848
 30
0.0
 11
-24.44156234745351
 21
25.96554328048481
 31
0.0
  0
LINE
  5
95
330
1F
100
AcDbEntity
  8
0
100
AcDbLine
 10
-24.44156234745351
 20
25.96554328048481
 30
0.0
 11
-24.38407034745351
 21
25.89392768048481
 31
0.0
  0
LINE
  5
96
330
1F
100
AcDbEntity
  8
0
100
AcDbLine
 10
-24.38407034745351
 20
25.89392768048481
 30
0.0
 11
-24.49501994745351
 21
25.9090582804848
 31
0.0
  0
LINE
  5
97
330
1F
100
AcDbEntity
  8
0
100
AcDbLine
 10
-24.49501994745351
 20
25.9090582804848
 30
0.0
 11
-24.57470294745351
 21
25.94133688048482
 31
0.0
  0
LINE
  5
98
330
1F
100
AcDbEntity
  8
0
100
AcDbLine
 10
-24.57470294745351
 20
25.94133688048482
 30
0.0
 11
-24.62211054745351
 21
25.99076008048482
 31
0.0
  0
LINE
  5
99
330
1F
100
AcDbEntity
  8
0
100
AcDbLine
 10
-24.62211054745351
 20
25.99076008048482
 30
0.0
 11
-24.63824814745351
 21
26.05934828048482
 31
0.0
  0
LINE
  5
9A
330
1F
100
AcDbEntity
  8
0
100
AcDbLine
 10
-24.63824814745351
 20
26.05934828048482
 30
0.0
 11
-24.63017934745351
 21
26.10977848048481
 31
0.0
  0
LINE
  5
9B
330
1F
100
AcDbEntity
  8
0
100
AcDbLine
 10
-24.63017934745351
 20
26.10977848048481
 30
0.0
 11
-24.60899714745351
 21
26.14810868048481
 31
0.0
  0
LINE
  5
9C
330
1F
100
AcDbEntity
  8
0
100
AcDbLine
 10
-24.60899714745351
 20
26.14810868048481
 30
0.0
 11
-24.57369434745351
 21
26.17332528048481
 31
0.0
  0
LINE
  5
9D
330
1F
100
AcDbEntity
  8
0
100
AcDbLine
 10
-24.57369434745351
 20
26.17332528048481
 30
0.0
 11
-24.52628834745351
 21
26.1864356804848
 31
0.0
  0
LINE
  5
9E
330
1F
100
AcDbEntity
  8
0
100
AcDbLine
 10
-24.52628834745351
 20
26.1864356804848
 30
0.0
 11
-24.52628834745351
 21
26.27923048048482
 31
0.0
  0
LINE
  5
9F
330
1F
100
AcDbEntity
  8
0
100
AcDbLine
 10
-24.22873894745351
 20
26.18744588048481
 30
0.0
 11
-24.16519214745351
 21
26.1763496804848
 31
0.0
  0
LINE
  5
A0
330
1F
100
AcDbEntity
  8
0
100
AcDbLine
 10
-24.16519214745351
 20
26.1763496804848
 30
0.0
 11
-24.11677914745351
 21
26.14810868048481
 31
0.0
  0
LINE
  5
A1
330
1F
100
AcDbEntity
  8
0
100
AcDbLine
 10
-24.11677914745351
 20
26.14810868048481
 30
0.0
 11
-24.08450054745351
 21
26.10271988048482
 31
0.0
  0
LINE
  5
A2
330
1F
100
AcDbEntity
  8
0
100
AcDbLine
 10
-24.08450054745351
 20
26.10271988048482
 30
0.0
 11
-24.07441454745351
 21
26.04623488048481
 31
0.0
  0
LINE
  5
A3
330
1F
100
AcDbEntity
  8
0
100
AcDbLine
 10
-24.07441454745351
 20
26.04623488048481
 30
0.0
 11
-24.08450054745351
 21
25.98672568048481
 31
0.0
  0
LINE
  5
A4
330
1F
100
AcDbEntity
  8
0
100
AcDbLine
 10
-24.08450054745351
 20
25.98672568048481
 30
0.0
 11
-24.11576894745351
 21
25.94133688048482
 31
0.0
  0
LINE
  5
A5
330
1F
100
AcDbEntity
  8
0
100
AcDbLine
 10
-24.11576894745351
 20
25.94133688048482
 30
0.0
 11
-24.16418514745351
 21
25.91208568048481
 31
0.0
  0
LINE
  5
A6
330
1F
100
AcDbEntity
  8
0
100
AcDbLine
 10
-24.16418514745351
 20
25.91208568048481
 30
0.0
 11
-24.22773034745351
 21
25.90300668048482
 31
0.0
  0
LINE
  5
A7
330
1F
100
AcDbEntity
  8
0
100
AcDbLine
 10
-24.22773034745351
 20
25.90300668048482
 30
0.0
 11
-24.29026534745351
 21
25.91309268048481
 31
0.0
  0
LINE
  5
A8
330
1F
100
AcDbEntity
  8
0
100
AcDbLine
 10
-24.29026534745351
 20
25.91309268048481
 30
0.0
 11
-24.33767134745351
 21
25.94133688048482
 31
0.0
  0
LINE
  5
A9
330
1F
100
AcDbEntity
  8
0
100
AcDbLine
 10
-24.33767134745351
 20
25.94133688048482
 30
0.0
 11
-24.36793114745351
 21
25.9877326804848
 31
0.0
  0
LINE
  5
AA
330
1F
100
AcDbEntity
  8
0
100
AcDbLine
 10
-24.36793114745351
 20
25.9877326804848
 30
0.0
 11
-24.37902574745351
 21
26.0502692804848
 31
0.0
  0
LINE
  5
AB
330
1F
100
AcDbEntity
  8
0
100
AcDbLine
 10
-24.37902574745351
 20
26.0502692804848
 30
0.0
 11
-24.36793114745351
 21
26.1047370804848
 31
0.0
  0
LINE
  5
AC
330
1F
100
AcDbEntity
  8
0
100
AcDbLine
 10
-24.36793114745351
 20
26.1047370804848
 30
0.0
 11
-24.33867994745351
 21
26.14810868048481
 31
0.0
  0
LINE
  5
AD
330
1F
100
AcDbEntity
  8
0
100
AcDbLine
 10
-24.33867994745351
 20
26.14810868048481
 30
0.0
 11
-24.29127394745351
 21
26.1763496804848
 31
0.0
  0
LINE
  5
AE
330
1F
100
AcDbEntity
  8
0
100
AcDbLine
 10
-24.29127394745351
 20
26.1763496804848
 30
0.0
 11
-24.22873894745351
 21
26.18744588048481
 31
0.0
  0
LINE
  5
AF
330
1F
100
AcDbEntity
  8
0
100
AcDbLine
 10
-24.01490534745351
 20
26.8398352804848
 30
0.0
 11
-24.01490534745351
 21
26.93061588048482
 31
0.0
  0
LINE
  5
B0
330
1F
100
AcDbEntity
  8
0
100
AcDbLine
 10
-24.01490534745351
 20
26.93061588048482
 30
0.0
 11
-24.18839314745351
 21
26.93061588048482
 31
0.0
  0
LINE
  5
B1
330
1F
100
AcDbEntity
  8
0
100
AcDbLine
 10
-24.18839314745351
 20
26.93061588048482
 30
0.0
 11
-24.18839314745351
 21
27.03047248048481
 31
0.0
  0
LINE
  5
B2
330
1F
100
AcDbEntity
  8
0
100
AcDbLine
 10
-24.18839314745351
 20
27.03047248048481
 30
0.0
 11
-24.26908474745351
 21
27.03047248048481
 31
0.0
  0
LINE
  5
B3
330
1F
100
AcDbEntity
  8
0
100
AcDbLine
 10
-24.26908474745351
 20
27.03047248048481
 30
0.0
 11
-24.26908474745351
 21
26.93061588048482
 31
0.0
  0
LINE
  5
B4
330
1F
100
AcDbEntity
  8
0
100
AcDbLine
 10
-24.26908474745351
 20
26.93061588048482
 30
0.0
 11
-24.69977614745351
 21
26.93061588048482
 31
0.0
  0
LINE
  5
B5
330
1F
100
AcDbEntity
  8
0
100
AcDbLine
 10
-24.69977614745351
 20
26.93061588048482
 30
0.0
 11
-24.69977614745351
 21
26.83882828048481
 31
0.0
  0
LINE
  5
B6
330
1F
100
AcDbEntity
  8
0
100
AcDbLine
 10
-24.69977614745351
 20
26.83882828048481
 30
0.0
 11
-24.27715354745351
 21
26.53219988048481
 31
0.0
  0
LINE
  5
B7
330
1F
100
AcDbEntity
  8
0
100
AcDbLine
 10
-24.27715354745351
 20
26.53219988048481
 30
0.0
 11
-24.18839314745351
 21
26.53219988048481
 31
0.0
  0
LINE
  5
B8
330
1F
100
AcDbEntity
  8
0
100
AcDbLine
 10
-24.18839314745351
 20
26.53219988048481
 30
0.0
 11
-24.18839314745351
 21
26.8398352804848
 31
0.0
  0
LINE
  5
B9
330
1F
100
AcDbEntity
  8
0
100
AcDbLine
 10
-24.18839314745351
 20
26.8398352804848
 30
0.0
 11
-24.01490534745351
 21
26.8398352804848
 31
0.0
  0
LINE
  5
BA
330
1F
100
AcDbEntity
  8
0
100
AcDbLine
 10
-24.26908474745351
 20
26.6169258804848
 30
0.0
 11
-24.58277334745351
 21
26.8398352804848
 31
0.0
  0
LINE
  5
BB
330
1F
100
AcDbEntity
  8
0
100
AcDbLine
 10
-24.58277334745351
 20
26.8398352804848
 30
0.0
 11
-24.26908474745351
 21
26.8398352804848
 31
0.0
  0
LINE
  5
BC
330
1F
100
AcDbEntity
  8
0
100
AcDbLine
 10
-24.26908474745351
 20
26.8398352804848
 30
0.0
 11
-24.26908474745351
 21
26.6169258804848
 31
0.0
  0
LINE
  5
BD
330
1F
100
AcDbEntity
  8
0
100
AcDbLine
 10
-28.40455674745351
 20
21.59914328048481
 30
0.0
 11
-23.61490534745351
 21
21.59914328048481
 31
0.0
  0
LINE
  5
BE
330
1F
100
AcDbEntity
  8
0
100
AcDbLine
 10
-23.71843314745351
 20
21.98551408048482
 30
0.0
 11
-23.61490534745351
 21
21.59914328048481
 31
0.0
  0
LINE
  5
BF
330
1F
100
AcDbEntity
  8
0
100
AcDbLine
 10
-23.61490534745351
 20
21.59914328048481
 30
0.0
 11
-23.51137734745351
 21
21.98551408048482
 31
0.0
  0
LINE
  5
C0
330
1F
100
AcDbEntity
  8
0
100
AcDbLine
 10
-23.51137734745351
 20
22.85277488048481
 30
0.0
 11
-23.61490534745351
 21
23.23914568048481
 31
0.0
  0
LINE
  5
C1
330
1F
100
AcDbEntity
  8
0
100
AcDbLine
 10
-23.61490534745351
 20
23.23914568048481
 30
0.0
 11
-23.71843314745351
 21
22.85277488048481
 31
0.0
  0
LINE
  5
C2
330
1F
100
AcDbEntity
  8
0
100
AcDbLine
 10
-23.61490534745351
 20
21.59914328048481
 30
0.0
 11
-23.61490534745351
 21
23.23914568048481
 31
0.0
  0
LINE
  5
C3
330
1F
100
AcDbEntity
  8
0
100
AcDbLine
 10
-23.80494734745351
 20
15.18925848048481
 30
0.0
 11
-23.72909894745351
 21
15.23913648048481
 31
0.0
  0
LINE
  5
C4
330
1F
100
AcDbEntity
  8
0
100
AcDbLine
 10
-23.72909894745351
 20
15.23913648048481
 30
0.0
 11
-23.82442074745351
 21
15.38409048048481
 31
0.0
  0
LINE
  5
C5
330
1F
100
AcDbEntity
  8
0
100
AcDbLine
 10
-23.82442074745351
 20
15.38409048048481
 30
0.0
 11
-23.74098854745351
 21
15.43895488048481
 31
0.0
  0
LINE
  5
C6
330
1F
100
AcDbEntity
  8
0
100
AcDbLine
 10
-23.74098854745351
 20
15.43895488048481
 30
0.0
 11
-23.78532454745351
 21
15.50637588048481
 31
0.0
  0
LINE
  5
C7
330
1F
100
AcDbEntity
  8
0
100
AcDbLine
 10
-23.78532454745351
 20
15.50637588048481
 30
0.0
 11
-23.86875654745351
 21
15.45151128048481
 31
0.0
  0
LINE
  5
C8
330
1F
100
AcDbEntity
  8
0
100
AcDbLine
 10
-23.86875654745351
 20
15.45151128048481
 30
0.0
 11
-24.10539594745351
 21
15.81136708048481
 31
0.0
  0
LINE
  5
C9
330
1F
100
AcDbEntity
  8
0
100
AcDbLine
 10
-24.10539594745351
 20
15.81136708048481
 30
0.0
 11
-24.18208674745351
 21
15.76093528048481
 31
0.0
  0
LINE
  5
CA
330
1F
100
AcDbEntity
  8
0
100
AcDbLine
 10
-24.18208674745351
 20
15.76093528048481
 30
0.0
 11
-24.20607814745351
 21
15.23934708048481
 31
0.0
  0
LINE
  5
CB
330
1F
100
AcDbEntity
  8
0
100
AcDbLine
 10
-24.20607814745351
 20
15.23934708048481
 30
0.0
 11
-24.15730954745351
 21
15.16518468048481
 31
0.0
  0
LINE
  5
CC
330
1F
100
AcDbEntity
  8
0
100
AcDbLine
 10
-24.15730954745351
 20
15.16518468048481
 30
0.0
 11
-23.90026894745351
 21
15.33421248048481
 31
0.0
  0
LINE
  5
CD
330
1F
100
AcDbEntity
  8
0
100
AcDbLine
 10
-23.90026894745351
 20
15.33421248048481
 30
0.0
 11
-23.80494734745351
 21
15.18925848048481
 31
0.0
  0
LINE
  5
CE
330
1F
100
AcDbEntity
  8
0
100
AcDbLine
 10
-24.13085374745351
 20
15.27915728048481
 30
0.0
 11
-24.11695914745351
 21
15.66373068048481
 31
0.0
  0
LINE
  5
CF
330
1F
100
AcDbEntity
  8
0
100
AcDbLine
 10
-24.11695914745351
 20
15.66373068048481
 30
0.0
 11
-23.94460494745351
 21
15.40163348048481
 31
0.0
  0
LINE
  5
D0
330
1F
100
AcDbEntity
  8
0
100
AcDbLine
 10
-23.94460494745351
 20
15.40163348048481
 30
0.0
 11
-24.13085374745351
 21
15.27915728048481
 31
0.0
  0
LINE
  5
D1
330
1F
100
AcDbEntity
  8
0
100
AcDbLine
 10
-23.2851353474535
 20
15.53108588048481
 30
0.0
 11
-23.16883594745351
 21
15.60756448048481
 31
0.0
  0
LINE
  5
D2
330
1F
100
AcDbEntity
  8
0
100
AcDbLine
 10
-23.16883594745351
 20
15.60756448048481
 30
0.0
 11
-23.25141034745351
 21
15.73313368048481
 31
0.0
  0
LINE
  5
D3
330
1F
100
AcDbEntity
  8
0
100
AcDbLine
 10
-23.25141034745351
 20
15.73313368048481
 30
0.0
 11
-23.36771294745351
 21
15.65665508048481
 31
0.0
  0
LINE
  5
D4
330
1F
100
AcDbEntity
  8
0
100
AcDbLine
 10
-23.36771294745351
 20
15.65665508048481
 30
0.0
 11
-23.2851353474535
 21
15.53108588048481
 31
0.0
  0
LINE
  5
D5
330
1F
100
AcDbEntity
  8
0
100
AcDbLine
 10
-22.80830434745351
 20
15.84464788048481
 30
0.0
 11
-22.40631154745351
 21
16.10899728048481
 31
0.0
  0
LINE
  5
D6
330
1F
100
AcDbEntity
  8
0
100
AcDbLine
 10
-22.40631154745351
 20
16.10899728048481
 30
0.0
 11
-22.45397074745351
 21
16.18147508048481
 31
0.0
  0
LINE
  5
D7
330
1F
100
AcDbEntity
  8
0
100
AcDbLine
 10
-22.45397074745351
 20
16.18147508048481
 30
0.0
 11
-22.77168934745351
 21
15.97254408048481
 31
0.0
  0
LINE
  5
D8
330
1F
100
AcDbEntity
  8
0
100
AcDbLine
 10
-22.77168934745351
 20
15.97254408048481
 30
0.0
 11
-22.78003894745351
 21
16.02379068048481
 31
0.0
  0
LINE
  5
D9
330
1F
100
AcDbEntity
  8
0
100
AcDbLine
 10
-22.78003894745351
 20
16.02379068048481
 30
0.0
 11
-22.77131394745351
 21
16.07660908048481
 31
0.0
  0
LINE
  5
DA
330
1F
100
AcDbEntity
  8
0
100
AcDbLine
 10
-22.77131394745351
 20
16.07660908048481
 30
0.0
 11
-22.71711474745351
 21
16.1979606804848
 31
0.0
  0
LINE
  5
DB
330
1F
100
AcDbEntity
  8
0
100
AcDbLine
 10
-22.71711474745351
 20
16.1979606804848
 30
0.0
 11
-22.68401834745351
 21
16.25594108048481
 31
0.0
  0
LINE
  5
DC
330
1F
100
AcDbEntity
  8
0
100
AcDbLine
 10
-22.68401834745351
 20
16.25594108048481
 30
0.0
 11
-22.65222834745351
 21
16.32875588048481
 31
0.0
  0
LINE
  5
DD
330
1F
100
AcDbEntity
  8
0
100
AcDbLine
 10
-22.65222834745351
 20
16.32875588048481
 30
0.0
 11
-22.6403295474535
 21
16.39694128048481
 31
0.0
  0
LINE
  5
DE
330
1F
100
AcDbEntity
  8
0
100
AcDbLine
 10
-22.6403295474535
 20
16.39694128048481
 30
0.0
 11
-22.65027214745351
 21
16.46162648048481
 31
0.0
  0
LINE
  5
DF
330
1F
100
AcDbEntity
  8
0
100
AcDbLine
 10
-22.65027214745351
 20
16.46162648048481
 30
0.0
 11
-22.67897394745351
 21
16.52363348048481
 31
0.0
  0
LINE
  5
E0
330
1F
100
AcDbEntity
  8
0
100
AcDbLine
 10
-22.67897394745351
 20
16.52363348048481
 30
0.0
 11
-22.73985334745351
 21
16.58500288048481
 31
0.0
  0
LINE
  5
E1
330
1F
100
AcDbEntity
  8
0
100
AcDbLine
 10
-22.73985334745351
 20
16.58500288048481
 30
0.0
 11
-22.81604054745351
 21
16.61457748048481
 31
0.0
  0
LINE
  5
E2
330
1F
100
AcDbEntity
  8
0
100
AcDbLine
 10
-22.81604054745351
 20
16.61457748048481
 30
0.0
 11
-22.89999434745351
 21
16.61007148048481
 31
0.0
  0
LINE
  5
E3
330
1F
100
AcDbEntity
  8
0
100
AcDbLine
 10
-22.89999434745351
 20
16.61007148048481
 30
0.0
 11
-22.98668254745351
 21
16.57117388048481
 31
0.0
  0
LINE
  5
E4
330
1F
100
AcDbEntity
  8
0
100
AcDbLine
 10
-22.98668254745351
 20
16.57117388048481
 30
0.0
 11
-23.05816694745351
 21
16.50364448048481
 31
0.0
  0
LINE
  5
E5
330
1F
100
AcDbEntity
  8
0
100
AcDbLine
 10
-23.05816694745351
 20
16.50364448048481
 30
0.0
 11
-23.09364054745351
 21
16.42357868048481
 31
0.0
  0
LINE
  5
E6
330
1F
100
AcDbEntity
  8
0
100
AcDbLine
 10
-23.09364054745351
 20
16.42357868048481
 30
0.0
 11
-23.09168454745351
 21
16.33432548048481
 31
0.0
  0
LINE
  5
E7
330
1F
100
AcDbEntity
  8
0
100
AcDbLine
 10
-23.09168454745351
 20
16.33432548048481
 30
0.0
 11
-23.05030574745351
 21
16.24202488048481
 31
0.0
  0
LINE
  5
E8
330
1F
100
AcDbEntity
  8
0
100
AcDbLine
 10
-23.05030574745351
 20
16.24202488048481
 30
0.0
 11
-22.96585434745351
 21
16.28065708048481
 31
0.0
  0
LINE
  5
E9
330
1F
100
AcDbEntity
  8
0
100
AcDbLine
 10
-22.96585434745351
 20
16.28065708048481
 30
0.0
 11
-23.00038814745351
 21
16.34969548048481
 31
0.0
  0
LINE
  5
EA
330
1F
100
AcDbEntity
  8
0
100
AcDbLine
 10
-23.00038814745351
 20
16.34969548048481
 30
0.0
 11
-23.00534414745351
 21
16.40679548048481
 31
0.0
  0
LINE
  5
EB
330
1F
100
AcDbEntity
  8
0
100
AcDbLine
 10
-23.00534414745351
 20
16.40679548048481
 30
0.0
 11
-22.98684134745351
 21
16.45759348048481
 31
0.0
  0
LINE
  5
EC
330
1F
100
AcDbEntity
  8
0
100
AcDbLine
 10
-22.98684134745351
 20
16.45759348048481
 30
0.0
 11
-22.94489794745351
 21
16.49845348048481
 31
0.0
  0
LINE
  5
ED
330
1F
100
AcDbEntity
  8
0
100
AcDbLine
 10
-22.94489794745351
 20
16.49845348048481
 30
0.0
 11
-22.89047594745351
 21
16.52216868048481
 31
0.0
  0
LINE
  5
EE
330
1F
100
AcDbEntity
  8
0
100
AcDbLine
 10
-22.89047594745351
 20
16.52216868048481
 30
0.0
 11
-22.84038434745351
 21
16.52493048048481
 31
0.0
  0
LINE
  5
EF
330
1F
100
AcDbEntity
  8
0
100
AcDbLine
 10
-22.84038434745351
 20
16.52493048048481
 30
0.0
 11
-22.79517254745351
 21
16.50757968048481
 31
0.0
  0
LINE
  5
F0
330
1F
100
AcDbEntity
  8
0
100
AcDbLine
 10
-22.79517254745351
 20
16.50757968048481
 30
0.0
 11
-22.75958914745351
 21
16.47182688048481
 31
0.0
  0
LINE
  5
F1
330
1F
100
AcDbEntity
  8
0
100
AcDbLine
 10
-22.75958914745351
 20
16.47182688048481
 30
0.0
 11
-22.73999674745351
 21
16.42918168048481
 31
0.0
  0
LINE
  5
F2
330
1F
100
AcDbEntity
  8
0
100
AcDbLine
 10
-22.73999674745351
 20
16.42918168048481
 30
0.0
 11
-22.7343969474535
 21
16.38578408048481
 31
0.0
  0
LINE
  5
F3
330
1F
100
AcDbEntity
  8
0
100
AcDbLine
 10
-22.7343969474535
 20
16.38578408048481
 30
0.0
 11
-22.74252054745351
 21
16.33939588048481
 31
0.0
  0
LINE
  5
F4
330
1F
100
AcDbEntity
  8
0
100
AcDbLine
 10
-22.74252054745351
 20
16.33939588048481
 30
0.0
 11
-22.76297654745351
 21
16.28973008048481
 31
0.0
  0
LINE
  5
F5
330
1F
100
AcDbEntity
  8
0
100
AcDbLine
 10
-22.76297654745351
 20
16.28973008048481
 30
0.0
 11
-22.79496514745351
 21
16.23006368048481
 31
0.0
  0
LINE
  5
F6
330
1F
100
AcDbEntity
  8
0
100
AcDbLine
 10
-22.79496514745351
 20
16.23006368048481
 30
0.0
 11
-22.84319514745351
 21
16.12350228048481
 31
0.0
  0
LINE
  5
F7
330
1F
100
AcDbEntity
  8
0
100
AcDbLine
 10
-22.84319514745351
 20
16.12350228048481
 30
0.0
 11
-22.86476794745351
 21
16.02964088048481
 31
0.0
  0
LINE
  5
F8
330
1F
100
AcDbEntity
  8
0
100
AcDbLine
 10
-22.86476794745351
 20
16.02964088048481
 30
0.0
 11
-22.85498714745351
 21
15.93949808048481
 31
0.0
  0
LINE
  5
F9
330
1F
100
AcDbEntity
  8
0
100
AcDbLine
 10
-22.85498714745351
 20
15.93949808048481
 30
0.0
 11
-22.80830434745351
 21
15.84464788048481
 31
0.0
  0
LINE
  5
FA
330
1F
100
AcDbEntity
  8
0
100
AcDbLine
 10
-24.54501534745351
 20
14.70259328048481
 30
0.0
 11
-24.60270734745351
 21
14.79032508048481
 31
0.0
  0
LINE
  5
FB
330
1F
100
AcDbEntity
  8
0
100
AcDbLine
 10
-24.46438034745351
 20
15.17451408048481
 30
0.0
 11
-24.51258894745351
 21
15.22659068048481
 31
0.0
  0
LINE
  5
FC
330
1F
100
AcDbEntity
  8
0
100
AcDbLine
 10
-24.51258894745351
 20
15.22659068048481
 30
0.0
 11
-24.54156694745351
 21
15.24942388048481
 31
0.0
  0
LINE
  5
FD
330
1F
100
AcDbEntity
  8
0
100
AcDbLine
 10
-24.54156694745351
 20
15.24942388048481
 30
0.0
 11
-24.56413614745351
 21
15.26250988048481
 31
0.0
  0
LINE
  5
FE
330
1F
100
AcDbEntity
  8
0
100
AcDbLine
 10
-24.56413614745351
 20
15.26250988048481
 30
0.0
 11
-24.60286154745351
 21
15.27893288048481
 31
0.0
  0
LINE
  5
FF
330
1F
100
AcDbEntity
  8
0
100
AcDbLine
 10
-24.60286154745351
 20
15.27893288048481
 30
0.0
 11
-24.65133554745351
 21
15.28894728048481
 31
0.0
  0
LINE
  5
100
330
1F
100
AcDbEntity
  8
0
100
AcDbLine
 10
-24.65133554745351
 20
15.28894728048481
 30
0.0
 11
-24.69339954745351
 21
15.28921128048481
 31
0.0
  0
LINE
  5
101
330
1F
100
AcDbEntity
  8
0
100
AcDbLine
 10
-24.69339954745351
 20
15.28921128048481
 30
0.0
 11
-24.71930594745351
 21
15.28613968048481
 31
0.0
  0
LINE
  5
102
330
1F
100
AcDbEntity
  8
0
100
AcDbLine
 10
-24.71930594745351
 20
15.28613968048481
 30
0.0
 11
-24.75495954745351
 21
15.27665628048481
 31
0.0
  0
LINE
  5
103
330
1F
100
AcDbEntity
  8
0
100
AcDbLine
 10
-24.75495954745351
 20
15.27665628048481
 30
0.0
 11
-24.80036054745351
 21
15.26076428048481
 31
0.0
  0
LINE
  5
104
330
1F
100
AcDbEntity
  8
0
100
AcDbLine
 10
-24.80036054745351
 20
15.26076428048481
 30
0.0
 11
-24.83935294745351
 21
15.23512348048481
 31
0.0
  0
LINE
  5
105
330
1F
100
AcDbEntity
  8
0
100
AcDbLine
 10
-24.83935294745351
 20
15.23512348048481
 30
0.0
 11
-24.87193354745351
 21
15.19973528048481
 31
0.0
  0
LINE
  5
106
330
1F
100
AcDbEntity
  8
0
100
AcDbLine
 10
-24.87193354745351
 20
15.19973528048481
 30
0.0
 11
-24.89476674745351
 21
15.17075728048481
 31
0.0
  0
LINE
  5
107
330
1F
100
AcDbEntity
  8
0
100
AcDbLine
 10
-24.89476674745351
 20
15.17075728048481
 30
0.0
 11
-24.90785274745351
 21
15.14818808048481
 31
0.0
  0
LINE
  5
108
330
1F
100
AcDbEntity
  8
0
100
AcDbLine
 10
-24.90785274745351
 20
15.14818808048481
 30
0.0
 11
-24.92427574745351
 21
15.10946268048481
 31
0.0
  0
LINE
  5
109
330
1F
100
AcDbEntity
  8
0
100
AcDbLine
 10
-24.92427574745351
 20
15.10946268048481
 30
0.0
 11
-24.93428994745351
 21
15.06098868048481
 31
0.0
  0
LINE
  5
10A
330
1F
100
AcDbEntity
  8
0
100
AcDbLine
 10
-24.93428994745351
 20
15.06098868048481
 30
0.0
 11
-24.93455394745351
 21
15.01892468048481
 31
0.0
  0
LINE
  5
10B
330
1F
100
AcDbEntity
  8
0
100
AcDbLine
 10
-24.93455394745351
 20
15.01892468048481
 30
0.0
 11
-24.93148234745351
 21
14.99301828048481
 31
0.0
  0
LINE
  5
10C
330
1F
100
AcDbEntity
  8
0
100
AcDbLine
 10
-24.93148234745351
 20
14.99301828048481
 30
0.0
 11
-24.92199914745351
 21
14.95736468048481
 31
0.0
  0
LINE
  5
10D
330
1F
100
AcDbEntity
  8
0
100
AcDbLine
 10
-24.92199914745351
 20
14.95736468048481
 30
0.0
 11
-24.90610714745351
 21
14.91196208048481
 31
0.0
  0
LINE
  5
10E
330
1F
100
AcDbEntity
  8
0
100
AcDbLine
 10
-24.90610714745351
 20
14.91196208048481
 30
0.0
 11
-24.88046614745351
 21
14.87297128048481
 31
0.0
  0
LINE
  5
10F
330
1F
100
AcDbEntity
  8
0
100
AcDbLine
 10
-24.88046614745351
 20
14.87297128048481
 30
0.0
 11
-24.84507794745351
 21
14.84039068048481
 31
0.0
  0
LINE
  5
110
330
1F
100
AcDbEntity
  8
0
100
AcDbLine
 10
-24.84507794745351
 20
14.84039068048481
 30
0.0
 11
-24.81609994745351
 21
14.81755588048481
 31
0.0
  0
LINE
  5
111
330
1F
100
AcDbEntity
  8
0
100
AcDbLine
 10
-24.81609994745351
 20
14.81755588048481
 30
0.0
 11
-24.79353074745351
 21
14.80447148048481
 31
0.0
  0
LINE
  5
112
330
1F
100
AcDbEntity
  8
0
100
AcDbLine
 10
-24.79353074745351
 20
14.80447148048481
 30
0.0
 11
-24.75480554745351
 21
14.78804708048481
 31
0.0
  0
LINE
  5
113
330
1F
100
AcDbEntity
  8
0
100
AcDbLine
 10
-24.75480554745351
 20
14.78804708048481
 30
0.0
 11
-24.70633134745351
 21
14.77803428048481
 31
0.0
  0
LINE
  5
114
330
1F
100
AcDbEntity
  8
0
100
AcDbLine
 10
-24.70633134745351
 20
14.77803428048481
 30
0.0
 11
-24.66426754745351
 21
14.77776868048481
 31
0.0
  0
LINE
  5
115
330
1F
100
AcDbEntity
  8
0
100
AcDbLine
 10
-24.66426754745351
 20
14.77776868048481
 30
0.0
 11
-24.63836114745351
 21
14.78084188048481
 31
0.0
  0
LINE
  5
116
330
1F
100
AcDbEntity
  8
0
100
AcDbLine
 10
-24.63836114745351
 20
14.78084188048481
 30
0.0
 11
-24.60270734745351
 21
14.79032508048481
 31
0.0
  0
LINE
  5
117
330
1F
100
AcDbEntity
  8
0
100
AcDbLine
 10
-24.60270734745351
 20
14.79032508048481
 30
0.0
 11
-24.55730494745351
 21
14.80621708048481
 31
0.0
  0
LINE
  5
118
330
1F
100
AcDbEntity
  8
0
100
AcDbLine
 10
-24.55730494745351
 20
14.80621708048481
 30
0.0
 11
-24.51831414745351
 21
14.83185808048481
 31
0.0
  0
LINE
  5
119
330
1F
100
AcDbEntity
  8
0
100
AcDbLine
 10
-24.51831414745351
 20
14.83185808048481
 30
0.0
 11
-24.48573354745351
 21
14.86724628048481
 31
0.0
  0
LINE
  5
11A
330
1F
100
AcDbEntity
  8
0
100
AcDbLine
 10
-24.48573354745351
 20
14.86724628048481
 30
0.0
 11
-24.46289874745351
 21
14.89622428048481
 31
0.0
  0
LINE
  5
11B
330
1F
100
AcDbEntity
  8
0
100
AcDbLine
 10
-24.46289874745351
 20
14.89622428048481
 30
0.0
 11
-24.44981434745351
 21
14.91879348048481
 31
0.0
  0
LINE
  5
11C
330
1F
100
AcDbEntity
  8
0
100
AcDbLine
 10
-24.44981434745351
 20
14.91879348048481
 30
0.0
 11
-24.43338974745351
 21
14.95751868048481
 31
0.0
  0
LINE
  5
11D
330
1F
100
AcDbEntity
  8
0
100
AcDbLine
 10
-24.43338974745351
 20
14.95751868048481
 30
0.0
 11
-24.42337694745351
 21
15.00599288048481
 31
0.0
  0
LINE
  5
11E
330
1F
100
AcDbEntity
  8
0
100
AcDbLine
 10
-24.42337694745351
 20
15.00599288048481
 30
0.0
 11
-24.42311154745351
 21
15.04805668048481
 31
0.0
  0
LINE
  5
11F
330
1F
100
AcDbEntity
  8
0
100
AcDbLine
 10
-24.42311154745351
 20
15.04805668048481
 30
0.0
 11
-24.42618454745351
 21
15.07396308048481
 31
0.0
  0
LINE
  5
120
330
1F
100
AcDbEntity
  8
0
100
AcDbLine
 10
-24.42618454745351
 20
15.07396308048481
 30
0.0
 11
-24.43566634745351
 21
15.10961688048481
 31
0.0
  0
LINE
  5
121
330
1F
100
AcDbEntity
  8
0
100
AcDbLine
 10
-24.43566634745351
 20
15.10961688048481
 30
0.0
 11
-24.46438034745351
 21
15.17451408048481
 31
0.0
  0
LINE
  5
122
330
1F
100
AcDbEntity
  8
0
100
AcDbLine
 10
-25.3257741474535
 20
13.58652568048481
 30
0.0
 11
-25.05983174745351
 21
13.88531408048481
 31
0.0
  0
LINE
  5
123
330
1F
100
AcDbEntity
  8
0
100
AcDbLine
 10
-25.05983174745351
 20
13.88531408048481
 30
0.0
 11
-25.43953914745351
 21
13.75952688048481
 31
0.0
  0
LINE
  5
124
330
1F
100
AcDbEntity
  8
0
100
AcDbLine
 10
-21.28465634745351
 20
16.49176248048481
 30
0.0
 11
-21.55059854745351
 21
16.19297408048481
 31
0.0
  0
LINE
  5
125
330
1F
100
AcDbEntity
  8
0
100
AcDbLine
 10
-21.55059854745351
 20
16.19297408048481
 30
0.0
 11
-21.17089274745351
 21
16.31876148048481
 31
0.0
  0
LINE
  5
126
330
1F
100
AcDbEntity
  8
0
100
AcDbLine
 10
-25.89536334745351
 20
13.33587268048481
 30
0.0
 11
-25.05983174745351
 21
13.88531408048481
 31
0.0
  0
LINE
  5
127
330
1F
100
AcDbEntity
  8
0
100
AcDbLine
 10
-23.80074425277055
 20
-20.06306810391435
 30
0.0
 11
-23.31961945277055
 21
-20.06306810391435
 31
0.0
  0
LINE
  5
128
330
1F
100
AcDbEntity
  8
0
100
AcDbLine
 10
-23.31961945277055
 20
-20.06306810391435
 30
0.0
 11
-23.31961945277055
 21
-19.97632410391434
 31
0.0
  0
LINE
  5
129
330
1F
100
AcDbEntity
  8
0
100
AcDbLine
 10
-23.31961945277055
 20
-19.97632410391434
 30
0.0
 11
-23.69988065277056
 21
-19.97632410391434
 31
0.0
  0
LINE
  5
12A
330
1F
100
AcDbEntity
  8
0
100
AcDbLine
 10
-23.69988065277056
 20
-19.97632410391434
 30
0.0
 11
-23.67869845277056
 21
-19.92891810391435
 31
0.0
  0
LINE
  5
12B
330
1F
100
AcDbEntity
  8
0
100
AcDbLine
 10
-23.67869845277056
 20
-19.92891810391435
 30
0.0
 11
-23.64238865277056
 21
-19.88958110391435
 31
0.0
  0
LINE
  5
12C
330
1F
100
AcDbEntity
  8
0
100
AcDbLine
 10
-23.64238865277056
 20
-19.88958110391435
 30
0.0
 11
-23.53042885277055
 21
-19.81796690391434
 31
0.0
  0
LINE
  5
12D
330
1F
100
AcDbEntity
  8
0
100
AcDbLine
 10
-23.53042885277055
 20
-19.81796690391434
 30
0.0
 11
-23.47091645277056
 21
-19.78770790391435
 31
0.0
  0
LINE
  5
12E
330
1F
100
AcDbEntity
  8
0
100
AcDbLine
 10
-23.47091645277056
 20
-19.78770790391435
 30
0.0
 11
-23.40434845277055
 21
-19.74433570391435
 31
0.0
  0
LINE
  5
12F
330
1F
100
AcDbEntity
  8
0
100
AcDbLine
 10
-23.40434845277055
 20
-19.74433570391435
 30
0.0
 11
-23.35693945277055
 21
-19.69390310391435
 31
0.0
  0
LINE
  5
130
330
1F
100
AcDbEntity
  8
0
100
AcDbLine
 10
-23.35693945277055
 20
-19.69390310391435
 30
0.0
 11
-23.32970865277056
 21
-19.63439310391434
 31
0.0
  0
LINE
  5
131
330
1F
100
AcDbEntity
  8
0
100
AcDbLine
 10
-23.32970865277056
 20
-19.63439310391434
 30
0.0
 11
-23.31961945277055
 21
-19.56681410391434
 31
0.0
  0
LINE
  5
132
330
1F
100
AcDbEntity
  8
0
100
AcDbLine
 10
-23.31961945277055
 20
-19.56681410391434
 30
0.0
 11
-23.33676725277056
 21
-19.48208810391435
 31
0.0
  0
LINE
  5
133
330
1F
100
AcDbEntity
  8
0
100
AcDbLine
 10
-23.33676725277056
 20
-19.48208810391435
 30
0.0
 11
-23.38417325277055
 21
-19.41551710391434
 31
0.0
  0
LINE
  5
134
330
1F
100
AcDbEntity
  8
0
100
AcDbLine
 10
-23.38417325277055
 20
-19.41551710391434
 30
0.0
 11
-23.45679605277056
 21
-19.37315410391434
 31
0.0
  0
LINE
  5
135
330
1F
100
AcDbEntity
  8
0
100
AcDbLine
 10
-23.45679605277056
 20
-19.37315410391434
 30
0.0
 11
-23.55060085277055
 21
-19.35802510391435
 31
0.0
  0
LINE
  5
136
330
1F
100
AcDbEntity
  8
0
100
AcDbLine
 10
-23.55060085277055
 20
-19.35802510391435
 30
0.0
 11
-23.64743005277055
 21
-19.37517210391434
 31
0.0
  0
LINE
  5
137
330
1F
100
AcDbEntity
  8
0
100
AcDbLine
 10
-23.64743005277055
 20
-19.37517210391434
 30
0.0
 11
-23.72106305277055
 21
-19.42257810391435
 31
0.0
  0
LINE
  5
138
330
1F
100
AcDbEntity
  8
0
100
AcDbLine
 10
-23.72106305277055
 20
-19.42257810391435
 30
0.0
 11
-23.76846905277055
 21
-19.49822670391434
 31
0.0
  0
LINE
  5
139
330
1F
100
AcDbEntity
  8
0
100
AcDbLine
 10
-23.76846905277055
 20
-19.49822670391434
 30
0.0
 11
-23.78460665277056
 21
-19.59808170391435
 31
0.0
  0
LINE
  5
13A
330
1F
100
AcDbEntity
  8
0
100
AcDbLine
 10
-23.78460665277056
 20
-19.59808170391435
 30
0.0
 11
-23.69281885277056
 21
-19.61220290391434
 31
0.0
  0
LINE
  5
13B
330
1F
100
AcDbEntity
  8
0
100
AcDbLine
 10
-23.69281885277056
 20
-19.61220290391434
 30
0.0
 11
-23.68374305277055
 21
-19.53554650391435
 31
0.0
  0
LINE
  5
13C
330
1F
100
AcDbEntity
  8
0
100
AcDbLine
 10
-23.68374305277055
 20
-19.53554650391435
 30
0.0
 11
-23.65650905277056
 21
-19.48511330391435
 31
0.0
  0
LINE
  5
13D
330
1F
100
AcDbEntity
  8
0
100
AcDbLine
 10
-23.65650905277056
 20
-19.48511330391435
 30
0.0
 11
-23.61313745277056
 21
-19.45283710391434
 31
0.0
  0
LINE
  5
13E
330
1F
100
AcDbEntity
  8
0
100
AcDbLine
 10
-23.61313745277056
 20
-19.45283710391434
 30
0.0
 11
-23.55564545277055
 21
-19.44174250391434
 31
0.0
  0
LINE
  5
13F
330
1F
100
AcDbEntity
  8
0
100
AcDbLine
 10
-23.55564545277055
 20
-19.44174250391434
 30
0.0
 11
-23.49714325277056
 21
-19.45182850391434
 31
0.0
  0
LINE
  5
140
330
1F
100
AcDbEntity
  8
0
100
AcDbLine
 10
-23.49714325277056
 20
-19.45182850391434
 30
0.0
 11
-23.45377165277055
 21
-19.47704430391434
 31
0.0
  0
LINE
  5
141
330
1F
100
AcDbEntity
  8
0
100
AcDbLine
 10
-23.45377165277055
 20
-19.47704430391434
 30
0.0
 11
-23.42552765277055
 21
-19.51638150391434
 31
0.0
  0
LINE
  5
142
330
1F
100
AcDbEntity
  8
0
100
AcDbLine
 10
-23.42552765277055
 20
-19.51638150391434
 30
0.0
 11
-23.41544165277055
 21
-19.56580550391434
 31
0.0
  0
LINE
  5
143
330
1F
100
AcDbEntity
  8
0
100
AcDbLine
 10
-23.41544165277055
 20
-19.56580550391434
 30
0.0
 11
-23.42250345277055
 21
-19.61220290391434
 31
0.0
  0
LINE
  5
144
330
1F
100
AcDbEntity
  8
0
100
AcDbLine
 10
-23.42250345277055
 20
-19.61220290391434
 30
0.0
 11
-23.44166845277056
 21
-19.65154010391435
 31
0.0
  0
LINE
  5
145
330
1F
100
AcDbEntity
  8
0
100
AcDbLine
 10
-23.44166845277056
 20
-19.65154010391435
 30
0.0
 11
-23.47394385277055
 21
-19.68583430391434
 31
0.0
  0
LINE
  5
146
330
1F
100
AcDbEntity
  8
0
100
AcDbLine
 10
-23.47394385277055
 20
-19.68583430391434
 30
0.0
 11
-23.51832545277056
 21
-19.71609310391435
 31
0.0
  0
LINE
  5
147
330
1F
100
AcDbEntity
  8
0
100
AcDbLine
 10
-23.51832545277056
 20
-19.71609310391435
 30
0.0
 11
-23.57783485277056
 21
-19.74837090391435
 31
0.0
  0
LINE
  5
148
330
1F
100
AcDbEntity
  8
0
100
AcDbLine
 10
-23.57783485277056
 20
-19.74837090391435
 30
0.0
 11
-23.67668125277055
 21
-19.81090670391434
 31
0.0
  0
LINE
  5
149
330
1F
100
AcDbEntity
  8
0
100
AcDbLine
 10
-23.67668125277055
 20
-19.81090670391434
 30
0.0
 11
-23.74627665277056
 21
-19.87747690391435
 31
0.0
  0
LINE
  5
14A
330
1F
100
AcDbEntity
  8
0
100
AcDbLine
 10
-23.74627665277056
 20
-19.87747690391435
 30
0.0
 11
-23.78763405277056
 21
-19.95816850391435
 31
0.0
  0
LINE
  5
14B
330
1F
100
AcDbEntity
  8
0
100
AcDbLine
 10
-23.78763405277056
 20
-19.95816850391435
 30
0.0
 11
-23.80074425277055
 21
-20.06306810391435
 31
0.0
  0
LINE
  5
14C
330
1F
100
AcDbEntity
  8
0
100
AcDbLine
 10
-23.05051545277055
 20
-19.72113770391434
 30
0.0
 11
-23.03538485277056
 21
-19.87949410391435
 31
0.0
  0
LINE
  5
14D
330
1F
100
AcDbEntity
  8
0
100
AcDbLine
 10
-23.03538485277056
 20
-19.87949410391435
 30
0.0
 11
-22.98797885277055
 21
-19.99246270391435
 31
0.0
  0
LINE
  5
14E
330
1F
100
AcDbEntity
  8
0
100
AcDbLine
 10
-22.98797885277055
 20
-19.99246270391435
 30
0.0
 11
-22.91232885277056
 21
-20.06105090391434
 31
0.0
  0
LINE
  5
14F
330
1F
100
AcDbEntity
  8
0
100
AcDbLine
 10
-22.91232885277056
 20
-20.06105090391434
 30
0.0
 11
-22.80743065277055
 21
-20.08324090391434
 31
0.0
  0
LINE
  5
150
330
1F
100
AcDbEntity
  8
0
100
AcDbLine
 10
-22.80743065277055
 20
-20.08324090391434
 30
0.0
 11
-22.70353985277055
 21
-20.06105090391434
 31
0.0
  0
LINE
  5
151
330
1F
100
AcDbEntity
  8
0
100
AcDbLine
 10
-22.70353985277055
 20
-20.06105090391434
 30
0.0
 11
-22.62789285277056
 21
-19.99246270391435
 31
0.0
  0
LINE
  5
152
330
1F
100
AcDbEntity
  8
0
100
AcDbLine
 10
-22.62789285277056
 20
-19.99246270391435
 30
0.0
 11
-22.58149385277055
 21
-19.87949410391435
 31
0.0
  0
LINE
  5
153
330
1F
100
AcDbEntity
  8
0
100
AcDbLine
 10
-22.58149385277055
 20
-19.87949410391435
 30
0.0
 11
-22.56535625277056
 21
-19.72113770391434
 31
0.0
  0
LINE
  5
154
330
1F
100
AcDbEntity
  8
0
100
AcDbLine
 10
-22.56535625277056
 20
-19.72113770391434
 30
0.0
 11
-22.58149385277055
 21
-19.56378750391436
 31
0.0
  0
LINE
  5
155
330
1F
100
AcDbEntity
  8
0
100
AcDbLine
 10
-22.58149385277055
 20
-19.56378750391436
 30
0.0
 11
-22.60065885277055
 21
-19.50125250391434
 31
0.0
  0
LINE
  5
156
330
1F
100
AcDbEntity
  8
0
100
AcDbLine
 10
-22.60065885277055
 20
-19.50125250391434
 30
0.0
 11
-22.62789285277056
 21
-19.44981130391434
 31
0.0
  0
LINE
  5
157
330
1F
100
AcDbEntity
  8
0
100
AcDbLine
 10
-22.62789285277056
 20
-19.44981130391434
 30
0.0
 11
-22.70353985277055
 21
-19.38122310391434
 31
0.0
  0
LINE
  5
158
330
1F
100
AcDbEntity
  8
0
100
AcDbLine
 10
-22.70353985277055
 20
-19.38122310391434
 30
0.0
 11
-22.80743065277055
 21
-19.35802510391435
 31
0.0
  0
LINE
  5
159
330
1F
100
AcDbEntity
  8
0
100
AcDbLine
 10
-22.80743065277055
 20
-19.35802510391435
 30
0.0
 11
-22.91232885277056
 21
-19.38122310391434
 31
0.0
  0
LINE
  5
15A
330
1F
100
AcDbEntity
  8
0
100
AcDbLine
 10
-22.91232885277056
 20
-19.38122310391434
 30
0.0
 11
-22.98797885277055
 21
-19.45082070391434
 31
0.0
  0
LINE
  5
15B
330
1F
100
AcDbEntity
  8
0
100
AcDbLine
 10
-22.98797885277055
 20
-19.45082070391434
 30
0.0
 11
-23.03538485277056
 21
-19.56378750391436
 31
0.0
  0
LINE
  5
15C
330
1F
100
AcDbEntity
  8
0
100
AcDbLine
 10
-23.03538485277056
 20
-19.56378750391436
 30
0.0
 11
-23.05051545277055
 21
-19.72113770391434
 31
0.0
  0
LINE
  5
15D
330
1F
100
AcDbEntity
  8
0
100
AcDbLine
 10
-22.95368325277055
 20
-19.72113770391434
 30
0.0
 11
-22.94561425277056
 21
-19.59909110391435
 31
0.0
  0
LINE
  5
15E
330
1F
100
AcDbEntity
  8
0
100
AcDbLine
 10
-22.94561425277056
 20
-19.59909110391435
 30
0.0
 11
-22.92039765277056
 21
-19.51133850391435
 31
0.0
  0
LINE
  5
15F
330
1F
100
AcDbEntity
  8
0
100
AcDbLine
 10
-22.92039765277056
 20
-19.51133850391435
 30
0.0
 11
-22.87500885277056
 21
-19.45989730391435
 31
0.0
  0
LINE
  5
160
330
1F
100
AcDbEntity
  8
0
100
AcDbLine
 10
-22.87500885277056
 20
-19.45989730391435
 30
0.0
 11
-22.80743065277055
 21
-19.44174250391434
 31
0.0
  0
LINE
  5
161
330
1F
100
AcDbEntity
  8
0
100
AcDbLine
 10
-22.80743065277055
 20
-19.44174250391434
 30
0.0
 11
-22.74085965277056
 21
-19.45989730391435
 31
0.0
  0
LINE
  5
162
330
1F
100
AcDbEntity
  8
0
100
AcDbLine
 10
-22.74085965277056
 20
-19.45989730391435
 30
0.0
 11
-22.69547085277055
 21
-19.51133850391435
 31
0.0
  0
LINE
  5
163
330
1F
100
AcDbEntity
  8
0
100
AcDbLine
 10
-22.69547085277055
 20
-19.51133850391435
 30
0.0
 11
-22.67025425277055
 21
-19.59909110391435
 31
0.0
  0
LINE
  5
164
330
1F
100
AcDbEntity
  8
0
100
AcDbLine
 10
-22.67025425277055
 20
-19.59909110391435
 30
0.0
 11
-22.66218545277056
 21
-19.72113770391434
 31
0.0
  0
LINE
  5
165
330
1F
100
AcDbEntity
  8
0
100
AcDbLine
 10
-22.66218545277056
 20
-19.72113770391434
 30
0.0
 11
-22.67025425277055
 21
-19.84419230391434
 31
0.0
  0
LINE
  5
166
330
1F
100
AcDbEntity
  8
0
100
AcDbLine
 10
-22.67025425277055
 20
-19.84419230391434
 30
0.0
 11
-22.69547085277055
 21
-19.93194390391434
 31
0.0
  0
LINE
  5
167
330
1F
100
AcDbEntity
  8
0
100
AcDbLine
 10
-22.69547085277055
 20
-19.93194390391434
 30
0.0
 11
-22.74085965277056
 21
-19.98338450391434
 31
0.0
  0
LINE
  5
168
330
1F
100
AcDbEntity
  8
0
100
AcDbLine
 10
-22.74085965277056
 20
-19.98338450391434
 30
0.0
 11
-22.80743065277055
 21
-20.00053150391435
 31
0.0
  0
LINE
  5
169
330
1F
100
AcDbEntity
  8
0
100
AcDbLine
 10
-22.80743065277055
 20
-20.00053150391435
 30
0.0
 11
-22.87500885277056
 21
-19.98338450391434
 31
0.0
  0
LINE
  5
16A
330
1F
100
AcDbEntity
  8
0
100
AcDbLine
 10
-22.87500885277056
 20
-19.98338450391434
 30
0.0
 11
-22.92039765277056
 21
-19.93194390391434
 31
0.0
  0
LINE
  5
16B
330
1F
100
AcDbEntity
  8
0
100
AcDbLine
 10
-22.92039765277056
 20
-19.93194390391434
 30
0.0
 11
-22.94561425277056
 21
-19.84419230391434
 31
0.0
  0
LINE
  5
16C
330
1F
100
AcDbEntity
  8
0
100
AcDbLine
 10
-22.94561425277056
 20
-19.84419230391434
 30
0.0
 11
-22.95368325277055
 21
-19.72113770391434
 31
0.0
  0
LINE
  5
16D
330
1F
100
AcDbEntity
  8
0
100
AcDbLine
 10
-33.18103465277056
 20
-14.05846150391435
 30
0.0
 11
-33.18103465277056
 21
-20.46306730391436
 31
0.0
  0
LINE
  5
16E
330
1F
100
AcDbEntity
  8
0
100
AcDbLine
 10
-13.18103305277056
 20
-14.05846150391435
 30
0.0
 11
-13.18103305277056
 21
-14.95764770886759
 31
0.0
  0
LINE
  5
16F
330
1F
100
AcDbEntity
  8
0
100
AcDbLine
 10
-32.79466365277055
 20
-20.35953950391434
 30
0.0
 11
-33.18103465277056
 21
-20.46306730391436
 31
0.0
  0
LINE
  5
170
330
1F
100
AcDbEntity
  8
0
100
AcDbLine
 10
-33.18103465277056
 20
-20.46306730391436
 30
0.0
 11
-32.79466365277055
 21
-20.56659510391435
 31
0.0
  0
LINE
  5
171
330
1F
100
AcDbEntity
  8
0
100
AcDbLine
 10
-13.56740385277058
 20
-20.56659510391435
 30
0.0
 11
-13.18103305277056
 21
-20.46306730391436
 31
0.0
  0
LINE
  5
172
330
1F
100
AcDbEntity
  8
0
100
AcDbLine
 10
-13.18103305277056
 20
-20.46306730391436
 30
0.0
 11
-13.56740385277058
 21
-20.35953950391434
 31
0.0
  0
LINE
  5
173
330
1F
100
AcDbEntity
  8
0
100
AcDbLine
 10
-33.18103465277056
 20
-20.46306730391436
 30
0.0
 11
-13.18103305277056
 21
-20.46306730391436
 31
0.0
  0
LINE
  5
174
330
1F
100
AcDbEntity
  8
0
100
AcDbLine
 10
-7.003265947453509
 20
5.56966328048481
 30
0.0
 11
-6.84490714745351
 21
5.584792280484812
 31
0.0
  0
LINE
  5
175
330
1F
100
AcDbEntity
  8
0
100
AcDbLine
 10
-6.84490714745351
 20
5.584792280484812
 30
0.0
 11
-6.731940147453518
 21
5.632198280484812
 31
0.0
  0
LINE
  5
176
330
1F
100
AcDbEntity
  8
0
100
AcDbLine
 10
-6.731940147453518
 20
5.632198280484812
 30
0.0
 11
-6.663351947453507
 21
5.707846880484808
 31
0.0
  0
LINE
  5
177
330
1F
100
AcDbEntity
  8
0
100
AcDbLine
 10
-6.663351947453507
 20
5.707846880484808
 30
0.0
 11
-6.641162547453508
 21
5.812746480484811
 31
0.0
  0
LINE
  5
178
330
1F
100
AcDbEntity
  8
0
100
AcDbLine
 10
-6.641162547453508
 20
5.812746480484811
 30
0.0
 11
-6.663351947453507
 21
5.916637480484811
 31
0.0
  0
LINE
  5
179
330
1F
100
AcDbEntity
  8
0
100
AcDbLine
 10
-6.663351947453507
 20
5.916637480484811
 30
0.0
 11
-6.731940147453518
 21
5.992285880484808
 31
0.0
  0
LINE
  5
17A
330
1F
100
AcDbEntity
  8
0
100
AcDbLine
 10
-6.731940147453518
 20
5.992285880484808
 30
0.0
 11
-6.84490714745351
 21
6.038683280484811
 31
0.0
  0
LINE
  5
17B
330
1F
100
AcDbEntity
  8
0
100
AcDbLine
 10
-6.84490714745351
 20
6.038683280484811
 30
0.0
 11
-7.003265947453509
 21
6.054821080484809
 31
0.0
  0
LINE
  5
17C
330
1F
100
AcDbEntity
  8
0
100
AcDbLine
 10
-7.003265947453509
 20
6.054821080484809
 30
0.0
 11
-7.160614547453522
 21
6.038683280484811
 31
0.0
  0
LINE
  5
17D
330
1F
100
AcDbEntity
  8
0
100
AcDbLine
 10
-7.160614547453522
 20
6.038683280484811
 30
0.0
 11
-7.223151147453513
 21
6.019518280484808
 31
0.0
  0
LINE
  5
17E
330
1F
100
AcDbEntity
  8
0
100
AcDbLine
 10
-7.223151147453513
 20
6.019518280484808
 30
0.0
 11
-7.274591547453503
 21
5.992285880484808
 31
0.0
  0
LINE
  5
17F
330
1F
100
AcDbEntity
  8
0
100
AcDbLine
 10
-7.274591547453503
 20
5.992285880484808
 30
0.0
 11
-7.343179747453501
 21
5.916637480484811
 31
0.0
  0
LINE
  5
180
330
1F
100
AcDbEntity
  8
0
100
AcDbLine
 10
-7.343179747453501
 20
5.916637480484811
 30
0.0
 11
-7.36637934745351
 21
5.812746480484811
 31
0.0
  0
LINE
  5
181
330
1F
100
AcDbEntity
  8
0
100
AcDbLine
 10
-7.36637934745351
 20
5.812746480484811
 30
0.0
 11
-7.343179747453501
 21
5.707846880484808
 31
0.0
  0
LINE
  5
182
330
1F
100
AcDbEntity
  8
0
100
AcDbLine
 10
-7.343179747453501
 20
5.707846880484808
 30
0.0
 11
-7.273581347453511
 21
5.632198280484812
 31
0.0
  0
LINE
  5
183
330
1F
100
AcDbEntity
  8
0
100
AcDbLine
 10
-7.273581347453511
 20
5.632198280484812
 30
0.0
 11
-7.160614547453522
 21
5.584792280484812
 31
0.0
  0
LINE
  5
184
330
1F
100
AcDbEntity
  8
0
100
AcDbLine
 10
-7.160614547453522
 20
5.584792280484812
 30
0.0
 11
-7.003265947453509
 21
5.56966328048481
 31
0.0
  0
LINE
  5
185
330
1F
100
AcDbEntity
  8
0
100
AcDbLine
 10
-7.003265947453509
 20
5.66649248048481
 30
0.0
 11
-7.12531174745351
 21
5.674561280484813
 31
0.0
  0
LINE
  5
186
330
1F
100
AcDbEntity
  8
0
100
AcDbLine
 10
-7.12531174745351
 20
5.674561280484813
 30
0.0
 11
-7.213065147453509
 21
5.699777880484813
 31
0.0
  0
LINE
  5
187
330
1F
100
AcDbEntity
  8
0
100
AcDbLine
 10
-7.213065147453509
 20
5.699777880484813
 30
0.0
 11
-7.264505547453499
 21
5.745166680484813
 31
0.0
  0
LINE
  5
188
330
1F
100
AcDbEntity
  8
0
100
AcDbLine
 10
-7.264505547453499
 20
5.745166680484813
 30
0.0
 11
-7.282660347453517
 21
5.812746480484811
 31
0.0
  0
LINE
  5
189
330
1F
100
AcDbEntity
  8
0
100
AcDbLine
 10
-7.282660347453517
 20
5.812746480484811
 30
0.0
 11
-7.264505547453499
 21
5.879317480484809
 31
0.0
  0
LINE
  5
18A
330
1F
100
AcDbEntity
  8
0
100
AcDbLine
 10
-7.264505547453499
 20
5.879317480484809
 30
0.0
 11
-7.213065147453509
 21
5.924706280484814
 31
0.0
  0
LINE
  5
18B
330
1F
100
AcDbEntity
  8
0
100
AcDbLine
 10
-7.213065147453509
 20
5.924706280484814
 30
0.0
 11
-7.12531174745351
 21
5.949922880484814
 31
0.0
  0
LINE
  5
18C
330
1F
100
AcDbEntity
  8
0
100
AcDbLine
 10
-7.12531174745351
 20
5.949922880484814
 30
0.0
 11
-7.003265947453509
 21
5.957991680484811
 31
0.0
  0
LINE
  5
18D
330
1F
100
AcDbEntity
  8
0
100
AcDbLine
 10
-7.003265947453509
 20
5.957991680484811
 30
0.0
 11
-6.880209747453514
 21
5.949922880484814
 31
0.0
  0
LINE
  5
18E
330
1F
100
AcDbEntity
  8
0
100
AcDbLine
 10
-6.880209747453514
 20
5.949922880484814
 30
0.0
 11
-6.792459547453513
 21
5.924706280484814
 31
0.0
  0
LINE
  5
18F
330
1F
100
AcDbEntity
  8
0
100
AcDbLine
 10
-6.792459547453513
 20
5.924706280484814
 30
0.0
 11
-6.741019147453511
 21
5.879317480484809
 31
0.0
  0
LINE
  5
190
330
1F
100
AcDbEntity
  8
0
100
AcDbLine
 10
-6.741019147453511
 20
5.879317480484809
 30
0.0
 11
-6.723871347453509
 21
5.812746480484811
 31
0.0
  0
LINE
  5
191
330
1F
100
AcDbEntity
  8
0
100
AcDbLine
 10
-6.723871347453509
 20
5.812746480484811
 30
0.0
 11
-6.741019147453511
 21
5.745166680484813
 31
0.0
  0
LINE
  5
192
330
1F
100
AcDbEntity
  8
0
100
AcDbLine
 10
-6.741019147453511
 20
5.745166680484813
 30
0.0
 11
-6.792459547453513
 21
5.699777880484813
 31
0.0
  0
LINE
  5
193
330
1F
100
AcDbEntity
  8
0
100
AcDbLine
 10
-6.792459547453513
 20
5.699777880484813
 30
0.0
 11
-6.880209747453514
 21
5.674561280484813
 31
0.0
  0
LINE
  5
194
330
1F
100
AcDbEntity
  8
0
100
AcDbLine
 10
-6.880209747453514
 20
5.674561280484813
 30
0.0
 11
-7.003265947453509
 21
5.66649248048481
 31
0.0
  0
LINE
  5
195
330
1F
100
AcDbEntity
  8
0
100
AcDbLine
 10
-14.40521594745352
 20
25.03914568048482
 30
0.0
 11
-6.261334747453508
 21
25.03914568048477
 31
0.0
  0
LINE
  5
196
330
1F
100
AcDbEntity
  8
0
100
AcDbLine
 10
-6.157809947453509
 20
24.26503169140319
 30
0.0
 11
-6.261334747453508
 21
25.03914568048477
 31
0.0
  0
LINE
  5
197
330
1F
100
AcDbEntity
  8
0
100
AcDbLine
 10
-6.261334747453508
 20
25.03914568048477
 30
0.0
 11
-6.364862547453519
 21
24.26503169140319
 31
0.0
  0
LINE
  5
198
330
1F
100
AcDbEntity
  8
0
100
AcDbLine
 10
-6.364862547453519
 20
-14.25778634108958
 30
0.0
 11
-6.261334747453508
 21
-15.03189912803997
 31
0.0
  0
LINE
  5
199
330
1F
100
AcDbEntity
  8
0
100
AcDbLine
 10
-6.261334747453508
 20
-15.03189912803997
 30
0.0
 11
-6.157809947453509
 21
-14.25778634108958
 31
0.0
  0
LINE
  5
19A
330
1F
100
AcDbEntity
  8
0
100
AcDbLine
 10
-6.261334747453508
 20
-15.03189912803997
 30
0.0
 11
-6.261334747453508
 21
25.03914568048477
 31
0.0
  0
LINE
  5
19B
330
1F
100
AcDbEntity
  8
0
100
AcDbLine
 10
-28.9370381474535
 20
13.66819388048481
 30
0.0
 11
-28.85432934745351
 21
13.69038308048481
 31
0.0
  0
LINE
  5
19C
330
1F
100
AcDbEntity
  8
0
100
AcDbLine
 10
-28.85432934745351
 20
13.69038308048481
 30
0.0
 11
-28.78977554745351
 21
13.73980628048481
 31
0.0
  0
LINE
  5
19D
330
1F
100
AcDbEntity
  8
0
100
AcDbLine
 10
-28.78977554745351
 20
13.73980628048481
 30
0.0
 11
-28.7494297474535
 21
13.81242908048481
 31
0.0
  0
LINE
  5
19E
330
1F
100
AcDbEntity
  8
0
100
AcDbLine
 10
-28.7494297474535
 20
13.81242908048481
 30
0.0
 11
-28.73430074745351
 21
13.90522528048481
 31
0.0
  0
LINE
  5
19F
330
1F
100
AcDbEntity
  8
0
100
AcDbLine
 10
-28.73430074745351
 20
13.90522528048481
 30
0.0
 11
-28.75245554745351
 21
14.00709768048481
 31
0.0
  0
LINE
  5
1A0
330
1F
100
AcDbEntity
  8
0
100
AcDbLine
 10
-28.75245554745351
 20
14.00709768048481
 30
0.0
 11
-28.80187874745351
 21
14.08678048048481
 31
0.0
  0
LINE
  5
1A1
330
1F
100
AcDbEntity
  8
0
100
AcDbLine
 10
-28.80187874745351
 20
14.08678048048481
 30
0.0
 11
-28.88055314745351
 21
14.13721388048481
 31
0.0
  0
LINE
  5
1A2
330
1F
100
AcDbEntity
  8
0
100
AcDbLine
 10
-28.88055314745351
 20
14.13721388048481
 30
0.0
 11
-28.98141834745351
 21
14.15637748048481
 31
0.0
  0
LINE
  5
1A3
330
1F
100
AcDbEntity
  8
0
100
AcDbLine
 10
-28.98141834745351
 20
14.15637748048481
 30
0.0
 11
-29.07522334745351
 21
14.13923108048481
 31
0.0
  0
LINE
  5
1A4
330
1F
100
AcDbEntity
  8
0
100
AcDbLine
 10
-29.07522334745351
 20
14.13923108048481
 30
0.0
 11
-29.14885454745351
 21
14.09081488048481
 31
0.0
  0
LINE
  5
1A5
330
1F
100
AcDbEntity
  8
0
100
AcDbLine
 10
-29.14885454745351
 20
14.09081488048481
 30
0.0
 11
-29.19626054745351
 21
14.01516648048481
 31
0.0
  0
LINE
  5
1A6
330
1F
100
AcDbEntity
  8
0
100
AcDbLine
 10
-29.19626054745351
 20
14.01516648048481
 30
0.0
 11
-29.21340694745351
 21
13.91732868048481
 31
0.0
  0
LINE
  5
1A7
330
1F
100
AcDbEntity
  8
0
100
AcDbLine
 10
-29.21340694745351
 20
13.91732868048481
 30
0.0
 11
-29.20130354745351
 21
13.84168008048481
 31
0.0
  0
LINE
  5
1A8
330
1F
100
AcDbEntity
  8
0
100
AcDbLine
 10
-29.20130354745351
 20
13.84168008048481
 30
0.0
 11
-29.16801814745351
 21
13.78317788048481
 31
0.0
  0
LINE
  5
1A9
330
1F
100
AcDbEntity
  8
0
100
AcDbLine
 10
-29.16801814745351
 20
13.78317788048481
 30
0.0
 11
-29.35663494745351
 21
13.81142048048481
 31
0.0
  0
LINE
  5
1AA
330
1F
100
AcDbEntity
  8
0
100
AcDbLine
 10
-29.35663494745351
 20
13.81142048048481
 30
0.0
 11
-29.35663494745351
 21
14.11804888048481
 31
0.0
  0
LINE
  5
1AB
330
1F
100
AcDbEntity
  8
0
100
AcDbLine
 10
-29.35663494745351
 20
14.11804888048481
 30
0.0
 11
-29.43934374745351
 21
14.11804888048481
 31
0.0
  0
LINE
  5
1AC
330
1F
100
AcDbEntity
  8
0
100
AcDbLine
 10
-29.43934374745351
 20
14.11804888048481
 30
0.0
 11
-29.43934374745351
 21
13.74384068048481
 31
0.0
  0
LINE
  5
1AD
330
1F
100
AcDbEntity
  8
0
100
AcDbLine
 10
-29.43934374745351
 20
13.74384068048481
 30
0.0
 11
-29.06816154745351
 21
13.68836588048481
 31
0.0
  0
LINE
  5
1AE
330
1F
100
AcDbEntity
  8
0
100
AcDbLine
 10
-29.06816154745351
 20
13.68836588048481
 30
0.0
 11
-29.06816154745351
 21
13.76905748048481
 31
0.0
  0
LINE
  5
1AF
330
1F
100
AcDbEntity
  8
0
100
AcDbLine
 10
-29.06816154745351
 20
13.76905748048481
 30
0.0
 11
-29.11556894745351
 21
13.82755968048481
 31
0.0
  0
LINE
  5
1B0
330
1F
100
AcDbEntity
  8
0
100
AcDbLine
 10
-29.11556894745351
 20
13.82755968048481
 30
0.0
 11
-29.13271534745351
 21
13.90219948048481
 31
0.0
  0
LINE
  5
1B1
330
1F
100
AcDbEntity
  8
0
100
AcDbLine
 10
-29.13271534745351
 20
13.90219948048481
 30
0.0
 11
-29.12162074745351
 21
13.96675188048481
 31
0.0
  0
LINE
  5
1B2
330
1F
100
AcDbEntity
  8
0
100
AcDbLine
 10
-29.12162074745351
 20
13.96675188048481
 30
0.0
 11
-29.08934374745351
 21
14.01617508048481
 31
0.0
  0
LINE
  5
1B3
330
1F
100
AcDbEntity
  8
0
100
AcDbLine
 10
-29.08934374745351
 20
14.01617508048481
 30
0.0
 11
-29.03992054745351
 21
14.04744328048481
 31
0.0
  0
LINE
  5
1B4
330
1F
100
AcDbEntity
  8
0
100
AcDbLine
 10
-29.03992054745351
 20
14.04744328048481
 30
0.0
 11
-28.97637534745351
 21
14.05853948048481
 31
0.0
  0
LINE
  5
1B5
330
1F
100
AcDbEntity
  8
0
100
AcDbLine
 10
-28.97637534745351
 20
14.05853948048481
 30
0.0
 11
-28.91283014745351
 21
14.04744328048481
 31
0.0
  0
LINE
  5
1B6
330
1F
100
AcDbEntity
  8
0
100
AcDbLine
 10
-28.91283014745351
 20
14.04744328048481
 30
0.0
 11
-28.86340694745351
 21
14.01516648048481
 31
0.0
  0
LINE
  5
1B7
330
1F
100
AcDbEntity
  8
0
100
AcDbLine
 10
-28.86340694745351
 20
14.01516648048481
 30
0.0
 11
-28.83213854745351
 21
13.96574328048481
 31
0.0
  0
LINE
  5
1B8
330
1F
100
AcDbEntity
  8
0
100
AcDbLine
 10
-28.83213854745351
 20
13.96574328048481
 30
0.0
 11
-28.82104394745351
 21
13.90219948048481
 31
0.0
  0
LINE
  5
1B9
330
1F
100
AcDbEntity
  8
0
100
AcDbLine
 10
-28.82104394745351
 20
13.90219948048481
 30
0.0
 11
-28.82810414745351
 21
13.84874028048481
 31
0.0
  0
LINE
  5
1BA
330
1F
100
AcDbEntity
  8
0
100
AcDbLine
 10
-28.82810414745351
 20
13.84874028048481
 30
0.0
 11
-28.85130354745351
 21
13.80738608048481
 31
0.0
  0
LINE
  5
1BB
330
1F
100
AcDbEntity
  8
0
100
AcDbLine
 10
-28.85130354745351
 20
13.80738608048481
 30
0.0
 11
-28.88761494745351
 21
13.77712628048481
 31
0.0
  0
LINE
  5
1BC
330
1F
100
AcDbEntity
  8
0
100
AcDbLine
 10
-28.88761494745351
 20
13.77712628048481
 30
0.0
 11
-28.9370381474535
 21
13.76199728048481
 31
0.0
  0
LINE
  5
1BD
330
1F
100
AcDbEntity
  8
0
100
AcDbLine
 10
-28.9370381474535
 20
13.76199728048481
 30
0.0
 11
-28.9370381474535
 21
13.66819388048481
 31
0.0
  0
LINE
  5
1BE
330
1F
100
AcDbEntity
  8
0
100
AcDbLine
 10
-28.75447274745351
 20
14.59594488048481
 30
0.0
 11
-28.75447274745351
 21
14.73513868048481
 31
0.0
  0
LINE
  5
1BF
330
1F
100
AcDbEntity
  8
0
100
AcDbLine
 10
-28.75447274745351
 20
14.73513868048481
 30
0.0
 11
-28.90476114745351
 21
14.73513868048481
 31
0.0
  0
LINE
  5
1C0
330
1F
100
AcDbEntity
  8
0
100
AcDbLine
 10
-28.90476114745351
 20
14.73513868048481
 30
0.0
 11
-28.90476114745351
 21
14.59594488048481
 31
0.0
  0
LINE
  5
1C1
330
1F
100
AcDbEntity
  8
0
100
AcDbLine
 10
-28.90476114745351
 20
14.59594488048481
 30
0.0
 11
-28.75447274745351
 21
14.59594488048481
 31
0.0
  0
LINE
  5
1C2
330
1F
100
AcDbEntity
  8
0
100
AcDbLine
 10
-29.26585594745351
 20
15.65482108048481
 30
0.0
 11
-29.34755754745351
 21
15.63565748048481
 31
0.0
  0
LINE
  5
1C3
330
1F
100
AcDbEntity
  8
0
100
AcDbLine
 10
-29.34755754745351
 20
15.63565748048481
 30
0.0
 11
-29.40807534745351
 21
15.59127728048481
 31
0.0
  0
LINE
  5
1C4
330
1F
100
AcDbEntity
  8
0
100
AcDbLine
 10
-29.40807534745351
 20
15.59127728048481
 30
0.0
 11
-29.44640394745351
 21
15.52268908048481
 31
0.0
  0
LINE
  5
1C5
330
1F
100
AcDbEntity
  8
0
100
AcDbLine
 10
-29.44640394745351
 20
15.52268908048481
 30
0.0
 11
-29.45951734745351
 21
15.43392868048481
 31
0.0
  0
LINE
  5
1C6
330
1F
100
AcDbEntity
  8
0
100
AcDbLine
 10
-29.45951734745351
 20
15.43392868048481
 30
0.0
 11
-29.45245554745351
 21
15.37441788048481
 31
0.0
  0
LINE
  5
1C7
330
1F
100
AcDbEntity
  8
0
100
AcDbLine
 10
-29.45245554745351
 20
15.37441788048481
 30
0.0
 11
-29.43329214745351
 21
15.32297748048481
 31
0.0
  0
LINE
  5
1C8
330
1F
100
AcDbEntity
  8
0
100
AcDbLine
 10
-29.43329214745351
 20
15.32297748048481
 30
0.0
 11
-29.40202374745351
 21
15.27758868048481
 31
0.0
  0
LINE
  5
1C9
330
1F
100
AcDbEntity
  8
0
100
AcDbLine
 10
-29.40202374745351
 20
15.27758868048481
 30
0.0
 11
-29.35764354745351
 21
15.23926008048481
 31
0.0
  0
LINE
  5
1CA
330
1F
100
AcDbEntity
  8
0
100
AcDbLine
 10
-29.35764354745351
 20
15.23926008048481
 30
0.0
 11
-29.30216874745351
 21
15.20900028048481
 31
0.0
  0
LINE
  5
1CB
330
1F
100
AcDbEntity
  8
0
100
AcDbLine
 10
-29.30216874745351
 20
15.20900028048481
 30
0.0
 11
-29.23458914745351
 21
15.18680948048481
 31
0.0
  0
LINE
  5
1CC
330
1F
100
AcDbEntity
  8
0
100
AcDbLine
 10
-29.23458914745351
 20
15.18680948048481
 30
0.0
 11
-29.15490614745351
 21
15.17268908048481
 31
0.0
  0
LINE
  5
1CD
330
1F
100
AcDbEntity
  8
0
100
AcDbLine
 10
-29.15490614745351
 20
15.17268908048481
 30
0.0
 11
-29.0651357474535
 21
15.16865468048481
 31
0.0
  0
LINE
  5
1CE
330
1F
100
AcDbEntity
  8
0
100
AcDbLine
 10
-29.0651357474535
 20
15.16865468048481
 30
0.0
 11
-28.92190914745351
 21
15.18479228048481
 31
0.0
  0
LINE
  5
1CF
330
1F
100
AcDbEntity
  8
0
100
AcDbLine
 10
-28.92190914745351
 20
15.18479228048481
 30
0.0
 11
-28.81801814745351
 21
15.23421548048481
 31
0.0
  0
LINE
  5
1D0
330
1F
100
AcDbEntity
  8
0
100
AcDbLine
 10
-28.81801814745351
 20
15.23421548048481
 30
0.0
 11
-28.75548134745351
 21
15.31389988048481
 31
0.0
  0
LINE
  5
1D1
330
1F
100
AcDbEntity
  8
0
100
AcDbLine
 10
-28.75548134745351
 20
15.31389988048481
 30
0.0
 11
-28.73430074745351
 21
15.42283248048481
 31
0.0
  0
LINE
  5
1D2
330
1F
100
AcDbEntity
  8
0
100
AcDbLine
 10
-28.73430074745351
 20
15.42283248048481
 30
0.0
 11
-28.75245554745351
 21
15.52067188048481
 31
0.0
  0
LINE
  5
1D3
330
1F
100
AcDbEntity
  8
0
100
AcDbLine
 10
-28.75245554745351
 20
15.52067188048481
 30
0.0
 11
-28.79986314745351
 21
15.59531168048481
 31
0.0
  0
LINE
  5
1D4
330
1F
100
AcDbEntity
  8
0
100
AcDbLine
 10
-28.79986314745351
 20
15.59531168048481
 30
0.0
 11
-28.87450314745351
 21
15.64372628048481
 31
0.0
  0
LINE
  5
1D5
330
1F
100
AcDbEntity
  8
0
100
AcDbLine
 10
-28.87450314745351
 20
15.64372628048481
 30
0.0
 11
-28.96931514745351
 21
15.66087268048481
 31
0.0
  0
LINE
  5
1D6
330
1F
100
AcDbEntity
  8
0
100
AcDbLine
 10
-28.96931514745351
 20
15.66087268048481
 30
0.0
 11
-29.0651357474535
 21
15.64372628048481
 31
0.0
  0
LINE
  5
1D7
330
1F
100
AcDbEntity
  8
0
100
AcDbLine
 10
-29.0651357474535
 20
15.64372628048481
 30
0.0
 11
-29.13876694745351
 21
15.59732888048481
 31
0.0
  0
LINE
  5
1D8
330
1F
100
AcDbEntity
  8
0
100
AcDbLine
 10
-29.13876694745351
 20
15.59732888048481
 30
0.0
 11
-29.18516434745351
 21
15.52571488048481
 31
0.0
  0
LINE
  5
1D9
330
1F
100
AcDbEntity
  8
0
100
AcDbLine
 10
-29.18516434745351
 20
15.52571488048481
 30
0.0
 11
-29.20130354745351
 21
15.43695448048481
 31
0.0
  0
LINE
  5
1DA
330
1F
100
AcDbEntity
  8
0
100
AcDbLine
 10
-29.20130354745351
 20
15.43695448048481
 30
0.0
 11
-29.18112994745351
 21
15.34113228048481
 31
0.0
  0
LINE
  5
1DB
330
1F
100
AcDbEntity
  8
0
100
AcDbLine
 10
-29.18112994745351
 20
15.34113228048481
 30
0.0
 11
-29.12363794745351
 21
15.26951828048481
 31
0.0
  0
LINE
  5
1DC
330
1F
100
AcDbEntity
  8
0
100
AcDbLine
 10
-29.12363794745351
 20
15.26951828048481
 30
0.0
 11
-29.23458914745351
 21
15.28464888048481
 31
0.0
  0
LINE
  5
1DD
330
1F
100
AcDbEntity
  8
0
100
AcDbLine
 10
-29.23458914745351
 20
15.28464888048481
 30
0.0
 11
-29.31427194745351
 21
15.31692588048481
 31
0.0
  0
LINE
  5
1DE
330
1F
100
AcDbEntity
  8
0
100
AcDbLine
 10
-29.31427194745351
 20
15.31692588048481
 30
0.0
 11
-29.36167794745351
 21
15.36634908048481
 31
0.0
  0
LINE
  5
1DF
330
1F
100
AcDbEntity
  8
0
100
AcDbLine
 10
-29.36167794745351
 20
15.36634908048481
 30
0.0
 11
-29.37781574745351
 21
15.43493728048481
 31
0.0
  0
LINE
  5
1E0
330
1F
100
AcDbEntity
  8
0
100
AcDbLine
 10
-29.37781574745351
 20
15.43493728048481
 30
0.0
 11
-29.36974694745351
 21
15.48536908048481
 31
0.0
  0
LINE
  5
1E1
330
1F
100
AcDbEntity
  8
0
100
AcDbLine
 10
-29.36974694745351
 20
15.48536908048481
 30
0.0
 11
-29.34856614745351
 21
15.52369768048481
 31
0.0
  0
LINE
  5
1E2
330
1F
100
AcDbEntity
  8
0
100
AcDbLine
 10
-29.34856614745351
 20
15.52369768048481
 30
0.0
 11
-29.31326334745351
 21
15.54891428048481
 31
0.0
  0
LINE
  5
1E3
330
1F
100
AcDbEntity
  8
0
100
AcDbLine
 10
-29.31326334745351
 20
15.54891428048481
 30
0.0
 11
-29.26585594745351
 21
15.56202628048481
 31
0.0
  0
LINE
  5
1E4
330
1F
100
AcDbEntity
  8
0
100
AcDbLine
 10
-29.26585594745351
 20
15.56202628048481
 30
0.0
 11
-29.26585594745351
 21
15.65482108048481
 31
0.0
  0
LINE
  5
1E5
330
1F
100
AcDbEntity
  8
0
100
AcDbLine
 10
-28.96830654745351
 20
15.56303488048481
 30
0.0
 11
-28.90476114745351
 21
15.55194008048481
 31
0.0
  0
LINE
  5
1E6
330
1F
100
AcDbEntity
  8
0
100
AcDbLine
 10
-28.90476114745351
 20
15.55194008048481
 30
0.0
 11
-28.85634654745351
 21
15.52369768048481
 31
0.0
  0
LINE
  5
1E7
330
1F
100
AcDbEntity
  8
0
100
AcDbLine
 10
-28.85634654745351
 20
15.52369768048481
 30
0.0
 11
-28.82406974745351
 21
15.47830888048481
 31
0.0
  0
LINE
  5
1E8
330
1F
100
AcDbEntity
  8
0
100
AcDbLine
 10
-28.82406974745351
 20
15.47830888048481
 30
0.0
 11
-28.81398354745351
 21
15.42182388048481
 31
0.0
  0
LINE
  5
1E9
330
1F
100
AcDbEntity
  8
0
100
AcDbLine
 10
-28.81398354745351
 20
15.42182388048481
 30
0.0
 11
-28.82406974745351
 21
15.36231448048481
 31
0.0
  0
LINE
  5
1EA
330
1F
100
AcDbEntity
  8
0
100
AcDbLine
 10
-28.82406974745351
 20
15.36231448048481
 30
0.0
 11
-28.85533794745351
 21
15.31692588048481
 31
0.0
  0
LINE
  5
1EB
330
1F
100
AcDbEntity
  8
0
100
AcDbLine
 10
-28.85533794745351
 20
15.31692588048481
 30
0.0
 11
-28.90375254745351
 21
15.28767468048481
 31
0.0
  0
LINE
  5
1EC
330
1F
100
AcDbEntity
  8
0
100
AcDbLine
 10
-28.90375254745351
 20
15.28767468048481
 30
0.0
 11
-28.96729794745351
 21
15.27859728048481
 31
0.0
  0
LINE
  5
1ED
330
1F
100
AcDbEntity
  8
0
100
AcDbLine
 10
-28.96729794745351
 20
15.27859728048481
 30
0.0
 11
-29.02983294745351
 21
15.28868328048481
 31
0.0
  0
LINE
  5
1EE
330
1F
100
AcDbEntity
  8
0
100
AcDbLine
 10
-29.02983294745351
 20
15.28868328048481
 30
0.0
 11
-29.07724054745351
 21
15.31692588048481
 31
0.0
  0
LINE
  5
1EF
330
1F
100
AcDbEntity
  8
0
100
AcDbLine
 10
-29.07724054745351
 20
15.31692588048481
 30
0.0
 11
-29.1074987474535
 21
15.36332328048481
 31
0.0
  0
LINE
  5
1F0
330
1F
100
AcDbEntity
  8
0
100
AcDbLine
 10
-29.1074987474535
 20
15.36332328048481
 30
0.0
 11
-29.11859494745351
 21
15.42585828048481
 31
0.0
  0
LINE
  5
1F1
330
1F
100
AcDbEntity
  8
0
100
AcDbLine
 10
-29.11859494745351
 20
15.42585828048481
 30
0.0
 11
-29.1074987474535
 21
15.48032608048481
 31
0.0
  0
LINE
  5
1F2
330
1F
100
AcDbEntity
  8
0
100
AcDbLine
 10
-29.1074987474535
 20
15.48032608048481
 30
0.0
 11
-29.0782491474535
 21
15.52369768048481
 31
0.0
  0
LINE
  5
1F3
330
1F
100
AcDbEntity
  8
0
100
AcDbLine
 10
-29.0782491474535
 20
15.52369768048481
 30
0.0
 11
-29.03084314745351
 21
15.55194008048481
 31
0.0
  0
LINE
  5
1F4
330
1F
100
AcDbEntity
  8
0
100
AcDbLine
 10
-29.03084314745351
 20
15.55194008048481
 30
0.0
 11
-28.96830654745351
 21
15.56303488048481
 31
0.0
  0
LINE
  5
1F5
330
1F
100
AcDbEntity
  8
0
100
AcDbLine
 10
-29.13170674745351
 20
16.03487928048481
 30
0.0
 11
-29.10346414745351
 21
15.98343888048481
 31
0.0
  0
LINE
  5
1F6
330
1F
100
AcDbEntity
  8
0
100
AcDbLine
 10
-29.10346414745351
 20
15.98343888048481
 30
0.0
 11
-29.06412714745351
 21
15.94813608048481
 31
0.0
  0
LINE
  5
1F7
330
1F
100
AcDbEntity
  8
0
100
AcDbLine
 10
-29.06412714745351
 20
15.94813608048481
 30
0.0
 11
-29.0147039474535
 21
15.92594528048481
 31
0.0
  0
LINE
  5
1F8
330
1F
100
AcDbEntity
  8
0
100
AcDbLine
 10
-29.0147039474535
 20
15.92594528048481
 30
0.0
 11
-28.95519314745351
 21
15.91888508048481
 31
0.0
  0
LINE
  5
1F9
330
1F
100
AcDbEntity
  8
0
100
AcDbLine
 10
-28.95519314745351
 20
15.91888508048481
 30
0.0
 11
-28.86542414745351
 21
15.93502268048481
 31
0.0
  0
LINE
  5
1FA
330
1F
100
AcDbEntity
  8
0
100
AcDbLine
 10
-28.86542414745351
 20
15.93502268048481
 30
0.0
 11
-28.79582874745351
 21
15.98142168048481
 31
0.0
  0
LINE
  5
1FB
330
1F
100
AcDbEntity
  8
0
100
AcDbLine
 10
-28.79582874745351
 20
15.98142168048481
 30
0.0
 11
-28.75144694745351
 21
16.05706868048481
 31
0.0
  0
LINE
  5
1FC
330
1F
100
AcDbEntity
  8
0
100
AcDbLine
 10
-28.75144694745351
 20
16.05706868048481
 30
0.0
 11
-28.73430074745351
 21
16.15995108048481
 31
0.0
  0
LINE
  5
1FD
330
1F
100
AcDbEntity
  8
0
100
AcDbLine
 10
-28.73430074745351
 20
16.15995108048481
 30
0.0
 11
-28.75144694745351
 21
16.26182468048481
 31
0.0
  0
LINE
  5
1FE
330
1F
100
AcDbEntity
  8
0
100
AcDbLine
 10
-28.75144694745351
 20
16.26182468048481
 30
0.0
 11
-28.79582874745351
 21
16.33747328048481
 31
0.0
  0
LINE
  5
1FF
330
1F
100
AcDbEntity
  8
0
100
AcDbLine
 10
-28.79582874745351
 20
16.33747328048481
 30
0.0
 11
-28.86542414745351
 21
16.38387068048481
 31
0.0
  0
LINE
  5
200
330
1F
100
AcDbEntity
  8
0
100
AcDbLine
 10
-28.86542414745351
 20
16.38387068048481
 30
0.0
 11
-28.95519314745351
 21
16.40101688048481
 31
0.0
  0
LINE
  5
201
330
1F
100
AcDbEntity
  8
0
100
AcDbLine
 10
-28.95519314745351
 20
16.40101688048481
 30
0.0
 11
-29.0147039474535
 21
16.39294808048481
 31
0.0
  0
LINE
  5
202
330
1F
100
AcDbEntity
  8
0
100
AcDbLine
 10
-29.0147039474535
 20
16.39294808048481
 30
0.0
 11
-29.06412714745351
 21
16.37176748048481
 31
0.0
  0
LINE
  5
203
330
1F
100
AcDbEntity
  8
0
100
AcDbLine
 10
-29.06412714745351
 20
16.37176748048481
 30
0.0
 11
-29.10346414745351
 21
16.33545608048481
 31
0.0
  0
LINE
  5
204
330
1F
100
AcDbEntity
  8
0
100
AcDbLine
 10
-29.10346414745351
 20
16.33545608048481
 30
0.0
 11
-29.13170674745351
 21
16.28502268048481
 31
0.0
  0
LINE
  5
205
330
1F
100
AcDbEntity
  8
0
100
AcDbLine
 10
-29.13170674745351
 20
16.28502268048481
 30
0.0
 11
-29.15591474745351
 21
16.32536848048481
 31
0.0
  0
LINE
  5
206
330
1F
100
AcDbEntity
  8
0
100
AcDbLine
 10
-29.15591474745351
 20
16.32536848048481
 30
0.0
 11
-29.18920034745351
 21
16.35361088048481
 31
0.0
  0
LINE
  5
207
330
1F
100
AcDbEntity
  8
0
100
AcDbLine
 10
-29.18920034745351
 20
16.35361088048481
 30
0.0
 11
-29.22954454745351
 21
16.37075888048481
 31
0.0
  0
LINE
  5
208
330
1F
100
AcDbEntity
  8
0
100
AcDbLine
 10
-29.22954454745351
 20
16.37075888048481
 30
0.0
 11
-29.27896934745351
 21
16.37681048048481
 31
0.0
  0
LINE
  5
209
330
1F
100
AcDbEntity
  8
0
100
AcDbLine
 10
-29.27896934745351
 20
16.37681048048481
 30
0.0
 11
-29.35058334745351
 21
16.36067128048481
 31
0.0
  0
LINE
  5
20A
330
1F
100
AcDbEntity
  8
0
100
AcDbLine
 10
-29.35058334745351
 20
16.36067128048481
 30
0.0
 11
-29.40807534745351
 21
16.31830828048481
 31
0.0
  0
LINE
  5
20B
330
1F
100
AcDbEntity
  8
0
100
AcDbLine
 10
-29.40807534745351
 20
16.31830828048481
 30
0.0
 11
-29.44539534745351
 21
16.24971988048481
 31
0.0
  0
LINE
  5
20C
330
1F
100
AcDbEntity
  8
0
100
AcDbLine
 10
-29.44539534745351
 20
16.24971988048481
 30
0.0
 11
-29.45951734745351
 21
16.15995108048481
 31
0.0
  0
LINE
  5
20D
330
1F
100
AcDbEntity
  8
0
100
AcDbLine
 10
-29.45951734745351
 20
16.15995108048481
 30
0.0
 11
-29.44539534745351
 21
16.06917348048481
 31
0.0
  0
LINE
  5
20E
330
1F
100
AcDbEntity
  8
0
100
AcDbLine
 10
-29.44539534745351
 20
16.06917348048481
 30
0.0
 11
-29.40807534745351
 21
16.00058508048481
 31
0.0
  0
LINE
  5
20F
330
1F
100
AcDbEntity
  8
0
100
AcDbLine
 10
-29.40807534745351
 20
16.00058508048481
 30
0.0
 11
-29.35058334745351
 21
15.95721348048481
 31
0.0
  0
LINE
  5
210
330
1F
100
AcDbEntity
  8
0
100
AcDbLine
 10
-29.35058334745351
 20
15.95721348048481
 30
0.0
 11
-29.27896934745351
 21
15.94208288048481
 31
0.0
  0
LINE
  5
211
330
1F
100
AcDbEntity
  8
0
100
AcDbLine
 10
-29.27896934745351
 20
15.94208288048481
 30
0.0
 11
-29.22954454745351
 21
15.94712748048481
 31
0.0
  0
LINE
  5
212
330
1F
100
AcDbEntity
  8
0
100
AcDbLine
 10
-29.22954454745351
 20
15.94712748048481
 30
0.0
 11
-29.18920034745351
 21
15.96427388048481
 31
0.0
  0
LINE
  5
213
330
1F
100
AcDbEntity
  8
0
100
AcDbLine
 10
-29.18920034745351
 20
15.96427388048481
 30
0.0
 11
-29.13170674745351
 21
16.03487928048481
 31
0.0
  0
LINE
  5
214
330
1F
100
AcDbEntity
  8
0
100
AcDbLine
 10
-28.95721174745351
 20
16.01571428048481
 30
0.0
 11
-29.01066934745351
 21
16.02479328048481
 31
0.0
  0
LINE
  5
215
330
1F
100
AcDbEntity
  8
0
100
AcDbLine
 10
-29.01066934745351
 20
16.02479328048481
 30
0.0
 11
-29.05101514745351
 21
16.05404288048481
 31
0.0
  0
LINE
  5
216
330
1F
100
AcDbEntity
  8
0
100
AcDbLine
 10
-29.05101514745351
 20
16.05404288048481
 30
0.0
 11
-29.07724054745351
 21
16.09943308048481
 31
0.0
  0
LINE
  5
217
330
1F
100
AcDbEntity
  8
0
100
AcDbLine
 10
-29.07724054745351
 20
16.09943308048481
 30
0.0
 11
-29.08631794745351
 21
16.15995108048481
 31
0.0
  0
LINE
  5
218
330
1F
100
AcDbEntity
  8
0
100
AcDbLine
 10
-29.08631794745351
 20
16.15995108048481
 30
0.0
 11
-29.07724054745351
 21
16.21946188048481
 31
0.0
  0
LINE
  5
219
330
1F
100
AcDbEntity
  8
0
100
AcDbLine
 10
-29.07724054745351
 20
16.21946188048481
 30
0.0
 11
-29.05101514745351
 21
16.26485068048481
 31
0.0
  0
LINE
  5
21A
330
1F
100
AcDbEntity
  8
0
100
AcDbLine
 10
-29.05101514745351
 20
16.26485068048481
 30
0.0
 11
-29.01066934745351
 21
16.29410168048481
 31
0.0
  0
LINE
  5
21B
330
1F
100
AcDbEntity
  8
0
100
AcDbLine
 10
-29.01066934745351
 20
16.29410168048481
 30
0.0
 11
-28.95721174745351
 21
16.30418768048481
 31
0.0
  0
LINE
  5
21C
330
1F
100
AcDbEntity
  8
0
100
AcDbLine
 10
-28.95721174745351
 20
16.30418768048481
 30
0.0
 11
-28.89971814745351
 21
16.29410168048481
 31
0.0
  0
LINE
  5
21D
330
1F
100
AcDbEntity
  8
0
100
AcDbLine
 10
-28.89971814745351
 20
16.29410168048481
 30
0.0
 11
-28.85634654745351
 21
16.26485068048481
 31
0.0
  0
LINE
  5
21E
330
1F
100
AcDbEntity
  8
0
100
AcDbLine
 10
-28.85634654745351
 20
16.26485068048481
 30
0.0
 11
-28.82810414745351
 21
16.21946188048481
 31
0.0
  0
LINE
  5
21F
330
1F
100
AcDbEntity
  8
0
100
AcDbLine
 10
-28.82810414745351
 20
16.21946188048481
 30
0.0
 11
-28.81902674745351
 21
16.15995108048481
 31
0.0
  0
LINE
  5
220
330
1F
100
AcDbEntity
  8
0
100
AcDbLine
 10
-28.81902674745351
 20
16.15995108048481
 30
0.0
 11
-28.82810414745351
 21
16.09943308048481
 31
0.0
  0
LINE
  5
221
330
1F
100
AcDbEntity
  8
0
100
AcDbLine
 10
-28.82810414745351
 20
16.09943308048481
 30
0.0
 11
-28.85634654745351
 21
16.05404288048481
 31
0.0
  0
LINE
  5
222
330
1F
100
AcDbEntity
  8
0
100
AcDbLine
 10
-28.85634654745351
 20
16.05404288048481
 30
0.0
 11
-28.89971814745351
 21
16.02479328048481
 31
0.0
  0
LINE
  5
223
330
1F
100
AcDbEntity
  8
0
100
AcDbLine
 10
-28.89971814745351
 20
16.02479328048481
 30
0.0
 11
-28.95721174745351
 21
16.01571428048481
 31
0.0
  0
LINE
  5
224
330
1F
100
AcDbEntity
  8
0
100
AcDbLine
 10
-29.27090054745351
 20
16.03790508048481
 30
0.0
 11
-29.31528054745351
 21
16.04597388048481
 31
0.0
  0
LINE
  5
225
330
1F
100
AcDbEntity
  8
0
100
AcDbLine
 10
-29.31528054745351
 20
16.04597388048481
 30
0.0
 11
-29.34957474745351
 21
16.07018208048481
 31
0.0
  0
LINE
  5
226
330
1F
100
AcDbEntity
  8
0
100
AcDbLine
 10
-29.34957474745351
 20
16.07018208048481
 30
0.0
 11
-29.37075554745351
 21
16.10851048048481
 31
0.0
  0
LINE
  5
227
330
1F
100
AcDbEntity
  8
0
100
AcDbLine
 10
-29.37075554745351
 20
16.10851048048481
 30
0.0
 11
-29.37882434745351
 21
16.15995108048481
 31
0.0
  0
LINE
  5
228
330
1F
100
AcDbEntity
  8
0
100
AcDbLine
 10
-29.37882434745351
 20
16.15995108048481
 30
0.0
 11
-29.37075554745351
 21
16.21038288048481
 31
0.0
  0
LINE
  5
229
330
1F
100
AcDbEntity
  8
0
100
AcDbLine
 10
-29.37075554745351
 20
16.21038288048481
 30
0.0
 11
-29.34957474745351
 21
16.24871128048481
 31
0.0
  0
LINE
  5
22A
330
1F
100
AcDbEntity
  8
0
100
AcDbLine
 10
-29.34957474745351
 20
16.24871128048481
 30
0.0
 11
-29.31528054745351
 21
16.27291948048481
 31
0.0
  0
LINE
  5
22B
330
1F
100
AcDbEntity
  8
0
100
AcDbLine
 10
-29.31528054745351
 20
16.27291948048481
 30
0.0
 11
-29.27090054745351
 21
16.28199688048481
 31
0.0
  0
LINE
  5
22C
330
1F
100
AcDbEntity
  8
0
100
AcDbLine
 10
-29.27090054745351
 20
16.28199688048481
 30
0.0
 11
-29.22551014745351
 21
16.27291948048481
 31
0.0
  0
LINE
  5
22D
330
1F
100
AcDbEntity
  8
0
100
AcDbLine
 10
-29.22551014745351
 20
16.27291948048481
 30
0.0
 11
-29.19020734745351
 21
16.24871128048481
 31
0.0
  0
LINE
  5
22E
330
1F
100
AcDbEntity
  8
0
100
AcDbLine
 10
-29.19020734745351
 20
16.24871128048481
 30
0.0
 11
-29.16700954745351
 21
16.21038288048481
 31
0.0
  0
LINE
  5
22F
330
1F
100
AcDbEntity
  8
0
100
AcDbLine
 10
-29.16700954745351
 20
16.21038288048481
 30
0.0
 11
-29.15994914745351
 21
16.15995108048481
 31
0.0
  0
LINE
  5
230
330
1F
100
AcDbEntity
  8
0
100
AcDbLine
 10
-29.15994914745351
 20
16.15995108048481
 30
0.0
 11
-29.16801814745351
 21
16.10851048048481
 31
0.0
  0
LINE
  5
231
330
1F
100
AcDbEntity
  8
0
100
AcDbLine
 10
-29.16801814745351
 20
16.10851048048481
 30
0.0
 11
-29.19020734745351
 21
16.07018208048481
 31
0.0
  0
LINE
  5
232
330
1F
100
AcDbEntity
  8
0
100
AcDbLine
 10
-29.19020734745351
 20
16.07018208048481
 30
0.0
 11
-29.22551014745351
 21
16.04597388048481
 31
0.0
  0
LINE
  5
233
330
1F
100
AcDbEntity
  8
0
100
AcDbLine
 10
-29.22551014745351
 20
16.04597388048481
 30
0.0
 11
-29.27090054745351
 21
16.03790508048481
 31
0.0
  0
LINE
  5
234
330
1F
100
AcDbEntity
  8
0
100
AcDbLine
 10
-27.60587654745351
 20
12.19914328048481
 30
0.0
 11
-28.35447274745351
 21
12.19914328048481
 31
0.0
  0
LINE
  5
235
330
1F
100
AcDbEntity
  8
0
100
AcDbLine
 10
-27.60587654745351
 20
17.87914508048481
 30
0.0
 11
-28.35447274745351
 21
17.87914508048481
 31
0.0
  0
LINE
  5
236
330
1F
100
AcDbEntity
  8
0
100
AcDbLine
 10
-28.2509449474535
 20
17.49277408048481
 30
0.0
 11
-28.35447274745351
 21
17.87914508048481
 31
0.0
  0
LINE
  5
237
330
1F
100
AcDbEntity
  8
0
100
AcDbLine
 10
-28.35447274745351
 20
17.87914508048481
 30
0.0
 11
-28.45800074745351
 21
17.49277408048481
 31
0.0
  0
LINE
  5
238
330
1F
100
AcDbEntity
  8
0
100
AcDbLine
 10
-28.45800074745351
 20
12.58551408048481
 30
0.0
 11
-28.35447274745351
 21
12.19914328048481
 31
0.0
  0
LINE
  5
239
330
1F
100
AcDbEntity
  8
0
100
AcDbLine
 10
-28.35447274745351
 20
12.19914328048481
 30
0.0
 11
-28.2509449474535
 21
12.58551408048481
 31
0.0
  0
LINE
  5
23A
330
1F
100
AcDbEntity
  8
0
100
AcDbLine
 10
-28.35447274745351
 20
12.19914328048481
 30
0.0
 11
-28.35447274745351
 21
17.87914508048481
 31
0.0
  0
LINE
  5
23B
330
1F
100
AcDbEntity
  8
0
100
AcDbLine
 10
-24.05337805277055
 20
-17.38817790391436
 30
0.0
 11
-24.03824745277056
 21
-17.46786010391435
 31
0.0
  0
LINE
  5
23C
330
1F
100
AcDbEntity
  8
0
100
AcDbLine
 10
-24.03824745277056
 20
-17.46786010391435
 30
0.0
 11
-23.99487585277056
 21
-17.52938730391434
 31
0.0
  0
LINE
  5
23D
330
1F
100
AcDbEntity
  8
0
100
AcDbLine
 10
-23.99487585277056
 20
-17.52938730391434
 30
0.0
 11
-23.92628765277056
 21
-17.56771670391435
 31
0.0
  0
LINE
  5
23E
330
1F
100
AcDbEntity
  8
0
100
AcDbLine
 10
-23.92628765277056
 20
-17.56771670391435
 30
0.0
 11
-23.83551005277056
 21
-17.58183790391435
 31
0.0
  0
LINE
  5
23F
330
1F
100
AcDbEntity
  8
0
100
AcDbLine
 10
-23.83551005277056
 20
-17.58183790391435
 30
0.0
 11
-23.77600065277056
 21
-17.57477690391434
 31
0.0
  0
LINE
  5
240
330
1F
100
AcDbEntity
  8
0
100
AcDbLine
 10
-23.77600065277056
 20
-17.57477690391434
 30
0.0
 11
-23.72254005277056
 21
-17.55662210391434
 31
0.0
  0
LINE
  5
241
330
1F
100
AcDbEntity
  8
0
100
AcDbLine
 10
-23.72254005277056
 20
-17.55662210391434
 30
0.0
 11
-23.67715125277055
 21
-17.52535370391434
 31
0.0
  0
LINE
  5
242
330
1F
100
AcDbEntity
  8
0
100
AcDbLine
 10
-23.67715125277055
 20
-17.52535370391434
 30
0.0
 11
-23.63882425277056
 21
-17.48097350391435
 31
0.0
  0
LINE
  5
243
330
1F
100
AcDbEntity
  8
0
100
AcDbLine
 10
-23.63882425277056
 20
-17.48097350391435
 30
0.0
 11
-23.60856305277056
 21
-17.42549710391435
 31
0.0
  0
LINE
  5
244
330
1F
100
AcDbEntity
  8
0
100
AcDbLine
 10
-23.60856305277056
 20
-17.42549710391435
 30
0.0
 11
-23.58637365277055
 21
-17.35690970391434
 31
0.0
  0
LINE
  5
245
330
1F
100
AcDbEntity
  8
0
100
AcDbLine
 10
-23.58637365277055
 20
-17.35690970391434
 30
0.0
 11
-23.57326025277056
 21
-17.27823530391434
 31
0.0
  0
LINE
  5
246
330
1F
100
AcDbEntity
  8
0
100
AcDbLine
 10
-23.57326025277056
 20
-17.27823530391434
 30
0.0
 11
-23.56821865277055
 21
-17.18745690391434
 31
0.0
  0
LINE
  5
247
330
1F
100
AcDbEntity
  8
0
100
AcDbLine
 10
-23.56821865277055
 20
-17.18745690391434
 30
0.0
 11
-23.58536645277055
 21
-17.04523830391435
 31
0.0
  0
LINE
  5
248
330
1F
100
AcDbEntity
  8
0
100
AcDbLine
 10
-23.58536645277055
 20
-17.04523830391435
 30
0.0
 11
-23.63478985277056
 21
-16.94134730391436
 31
0.0
  0
LINE
  5
249
330
1F
100
AcDbEntity
  8
0
100
AcDbLine
 10
-23.63478985277056
 20
-16.94134730391436
 30
0.0
 11
-23.71346405277055
 21
-16.87881210391435
 31
0.0
  0
LINE
  5
24A
330
1F
100
AcDbEntity
  8
0
100
AcDbLine
 10
-23.71346405277055
 20
-16.87881210391435
 30
0.0
 11
-23.82138945277056
 21
-16.85662210391434
 31
0.0
  0
LINE
  5
24B
330
1F
100
AcDbEntity
  8
0
100
AcDbLine
 10
-23.82138945277056
 20
-16.85662210391434
 30
0.0
 11
-23.92023585277055
 21
-16.87477690391434
 31
0.0
  0
LINE
  5
24C
330
1F
100
AcDbEntity
  8
0
100
AcDbLine
 10
-23.92023585277055
 20
-16.87477690391434
 30
0.0
 11
-23.99487585277056
 21
-16.92319230391436
 31
0.0
  0
LINE
  5
24D
330
1F
100
AcDbEntity
  8
0
100
AcDbLine
 10
-23.99487585277056
 20
-16.92319230391436
 30
0.0
 11
-24.04329205277056
 21
-16.99783150391436
 31
0.0
  0
LINE
  5
24E
330
1F
100
AcDbEntity
  8
0
100
AcDbLine
 10
-24.04329205277056
 20
-16.99783150391436
 30
0.0
 11
-24.05942965277055
 21
-17.09163570391435
 31
0.0
  0
LINE
  5
24F
330
1F
100
AcDbEntity
  8
0
100
AcDbLine
 10
-24.05942965277055
 20
-17.09163570391435
 30
0.0
 11
-24.04329205277056
 21
-17.18846630391434
 31
0.0
  0
LINE
  5
250
330
1F
100
AcDbEntity
  8
0
100
AcDbLine
 10
-24.04329205277056
 20
-17.18846630391434
 30
0.0
 11
-23.99588285277056
 21
-17.26209690391435
 31
0.0
  0
LINE
  5
251
330
1F
100
AcDbEntity
  8
0
100
AcDbLine
 10
-23.99588285277056
 20
-17.26209690391435
 30
0.0
 11
-23.92528045277055
 21
-17.30849510391435
 31
0.0
  0
LINE
  5
252
330
1F
100
AcDbEntity
  8
0
100
AcDbLine
 10
-23.92528045277055
 20
-17.30849510391435
 30
0.0
 11
-23.83551005277056
 21
-17.32362490391436
 31
0.0
  0
LINE
  5
253
330
1F
100
AcDbEntity
  8
0
100
AcDbLine
 10
-23.83551005277056
 20
-17.32362490391436
 30
0.0
 11
-23.74069805277056
 21
-17.30445990391435
 31
0.0
  0
LINE
  5
254
330
1F
100
AcDbEntity
  8
0
100
AcDbLine
 10
-23.74069805277056
 20
-17.30445990391435
 30
0.0
 11
-23.66908245277055
 21
-17.24595850391436
 31
0.0
  0
LINE
  5
255
330
1F
100
AcDbEntity
  8
0
100
AcDbLine
 10
-23.66908245277055
 20
-17.24595850391436
 30
0.0
 11
-23.68522005277056
 21
-17.35791830391435
 31
0.0
  0
LINE
  5
256
330
1F
100
AcDbEntity
  8
0
100
AcDbLine
 10
-23.68522005277056
 20
-17.35791830391435
 30
0.0
 11
-23.71749845277056
 21
-17.43760110391435
 31
0.0
  0
LINE
  5
257
330
1F
100
AcDbEntity
  8
0
100
AcDbLine
 10
-23.71749845277056
 20
-17.43760110391435
 30
0.0
 11
-23.76692165277055
 21
-17.48500710391435
 31
0.0
  0
LINE
  5
258
330
1F
100
AcDbEntity
  8
0
100
AcDbLine
 10
-23.76692165277055
 20
-17.48500710391435
 30
0.0
 11
-23.83449985277056
 21
-17.50013790391435
 31
0.0
  0
LINE
  5
259
330
1F
100
AcDbEntity
  8
0
100
AcDbLine
 10
-23.83449985277056
 20
-17.50013790391435
 30
0.0
 11
-23.88695045277056
 21
-17.49307670391435
 31
0.0
  0
LINE
  5
25A
330
1F
100
AcDbEntity
  8
0
100
AcDbLine
 10
-23.88695045277056
 20
-17.49307670391435
 30
0.0
 11
-23.92528045277055
 21
-17.47088670391435
 31
0.0
  0
LINE
  5
25B
330
1F
100
AcDbEntity
  8
0
100
AcDbLine
 10
-23.92528045277055
 20
-17.47088670391435
 30
0.0
 11
-23.95049405277055
 21
-17.43558390391435
 31
0.0
  0
LINE
  5
25C
330
1F
100
AcDbEntity
  8
0
100
AcDbLine
 10
-23.95049405277055
 20
-17.43558390391435
 30
0.0
 11
-23.96058025277056
 21
-17.38817790391436
 31
0.0
  0
LINE
  5
25D
330
1F
100
AcDbEntity
  8
0
100
AcDbLine
 10
-23.96058025277056
 20
-17.38817790391436
 30
0.0
 11
-24.05337805277055
 21
-17.38817790391436
 31
0.0
  0
LINE
  5
25E
330
1F
100
AcDbEntity
  8
0
100
AcDbLine
 10
-23.96159025277056
 20
-17.09062690391436
 30
0.0
 11
-23.95150425277056
 21
-17.02809110391435
 31
0.0
  0
LINE
  5
25F
330
1F
100
AcDbEntity
  8
0
100
AcDbLine
 10
-23.95150425277056
 20
-17.02809110391435
 30
0.0
 11
-23.92326025277056
 21
-16.97866710391435
 31
0.0
  0
LINE
  5
260
330
1F
100
AcDbEntity
  8
0
100
AcDbLine
 10
-23.92326025277056
 20
-16.97866710391435
 30
0.0
 11
-23.87888165277056
 21
-16.94739890391435
 31
0.0
  0
LINE
  5
261
330
1F
100
AcDbEntity
  8
0
100
AcDbLine
 10
-23.87888165277056
 20
-16.94739890391435
 30
0.0
 11
-23.82138945277056
 21
-16.93630410391435
 31
0.0
  0
LINE
  5
262
330
1F
100
AcDbEntity
  8
0
100
AcDbLine
 10
-23.82138945277056
 20
-16.93630410391435
 30
0.0
 11
-23.76187725277056
 21
-16.94739890391435
 31
0.0
  0
LINE
  5
263
330
1F
100
AcDbEntity
  8
0
100
AcDbLine
 10
-23.76187725277056
 20
-16.94739890391435
 30
0.0
 11
-23.71648845277055
 21
-16.97866710391435
 31
0.0
  0
LINE
  5
264
330
1F
100
AcDbEntity
  8
0
100
AcDbLine
 10
-23.71648845277055
 20
-16.97866710391435
 30
0.0
 11
-23.68824745277055
 21
-17.02708250391434
 31
0.0
  0
LINE
  5
265
330
1F
100
AcDbEntity
  8
0
100
AcDbLine
 10
-23.68824745277055
 20
-17.02708250391434
 30
0.0
 11
-23.67715125277055
 21
-17.08961830391434
 31
0.0
  0
LINE
  5
266
330
1F
100
AcDbEntity
  8
0
100
AcDbLine
 10
-23.67715125277055
 20
-17.08961830391434
 30
0.0
 11
-23.68824745277055
 21
-17.15316290391434
 31
0.0
  0
LINE
  5
267
330
1F
100
AcDbEntity
  8
0
100
AcDbLine
 10
-23.68824745277055
 20
-17.15316290391434
 30
0.0
 11
-23.71648845277055
 21
-17.20056970391434
 31
0.0
  0
LINE
  5
268
330
1F
100
AcDbEntity
  8
0
100
AcDbLine
 10
-23.71648845277055
 20
-17.20056970391434
 30
0.0
 11
-23.76288725277056
 21
-17.22982070391435
 31
0.0
  0
LINE
  5
269
330
1F
100
AcDbEntity
  8
0
100
AcDbLine
 10
-23.76288725277056
 20
-17.22982070391435
 30
0.0
 11
-23.82441385277056
 21
-17.23990670391436
 31
0.0
  0
LINE
  5
26A
330
1F
100
AcDbEntity
  8
0
100
AcDbLine
 10
-23.82441385277056
 20
-17.23990670391436
 30
0.0
 11
-23.87988865277056
 21
-17.22982070391435
 31
0.0
  0
LINE
  5
26B
330
1F
100
AcDbEntity
  8
0
100
AcDbLine
 10
-23.87988865277056
 20
-17.22982070391435
 30
0.0
 11
-23.92326025277056
 21
-17.20056970391434
 31
0.0
  0
LINE
  5
26C
330
1F
100
AcDbEntity
  8
0
100
AcDbLine
 10
-23.92326025277056
 20
-17.20056970391434
 30
0.0
 11
-23.95150425277056
 21
-17.15417230391435
 31
0.0
  0
LINE
  5
26D
330
1F
100
AcDbEntity
  8
0
100
AcDbLine
 10
-23.95150425277056
 20
-17.15417230391435
 30
0.0
 11
-23.96159025277056
 21
-17.09062690391436
 31
0.0
  0
LINE
  5
26E
330
1F
100
AcDbEntity
  8
0
100
AcDbLine
 10
-23.30718045277055
 20
-17.21973470391434
 30
0.0
 11
-23.29204985277056
 21
-17.37809110391435
 31
0.0
  0
LINE
  5
26F
330
1F
100
AcDbEntity
  8
0
100
AcDbLine
 10
-23.29204985277056
 20
-17.37809110391435
 30
0.0
 11
-23.24464385277056
 21
-17.49105950391435
 31
0.0
  0
LINE
  5
270
330
1F
100
AcDbEntity
  8
0
100
AcDbLine
 10
-23.24464385277056
 20
-17.49105950391435
 30
0.0
 11
-23.16899685277055
 21
-17.55964790391435
 31
0.0
  0
LINE
  5
271
330
1F
100
AcDbEntity
  8
0
100
AcDbLine
 10
-23.16899685277055
 20
-17.55964790391435
 30
0.0
 11
-23.06409885277055
 21
-17.58183790391435
 31
0.0
  0
LINE
  5
272
330
1F
100
AcDbEntity
  8
0
100
AcDbLine
 10
-23.06409885277055
 20
-17.58183790391435
 30
0.0
 11
-22.96020785277056
 21
-17.55964790391435
 31
0.0
  0
LINE
  5
273
330
1F
100
AcDbEntity
  8
0
100
AcDbLine
 10
-22.96020785277056
 20
-17.55964790391435
 30
0.0
 11
-22.88455785277055
 21
-17.49105950391435
 31
0.0
  0
LINE
  5
274
330
1F
100
AcDbEntity
  8
0
100
AcDbLine
 10
-22.88455785277055
 20
-17.49105950391435
 30
0.0
 11
-22.83816205277055
 21
-17.37809110391435
 31
0.0
  0
LINE
  5
275
330
1F
100
AcDbEntity
  8
0
100
AcDbLine
 10
-22.83816205277055
 20
-17.37809110391435
 30
0.0
 11
-22.82202125277056
 21
-17.21973470391434
 31
0.0
  0
LINE
  5
276
330
1F
100
AcDbEntity
  8
0
100
AcDbLine
 10
-22.82202125277056
 20
-17.21973470391434
 30
0.0
 11
-22.83816205277055
 21
-17.06238450391436
 31
0.0
  0
LINE
  5
277
330
1F
100
AcDbEntity
  8
0
100
AcDbLine
 10
-22.83816205277055
 20
-17.06238450391436
 30
0.0
 11
-22.85732385277056
 21
-16.99984950391434
 31
0.0
  0
LINE
  5
278
330
1F
100
AcDbEntity
  8
0
100
AcDbLine
 10
-22.85732385277056
 20
-16.99984950391434
 30
0.0
 11
-22.88455785277055
 21
-16.94840830391434
 31
0.0
  0
LINE
  5
279
330
1F
100
AcDbEntity
  8
0
100
AcDbLine
 10
-22.88455785277055
 20
-16.94840830391434
 30
0.0
 11
-22.96020785277056
 21
-16.87981990391435
 31
0.0
  0
LINE
  5
27A
330
1F
100
AcDbEntity
  8
0
100
AcDbLine
 10
-22.96020785277056
 20
-16.87981990391435
 30
0.0
 11
-23.06409885277055
 21
-16.85662210391434
 31
0.0
  0
LINE
  5
27B
330
1F
100
AcDbEntity
  8
0
100
AcDbLine
 10
-23.06409885277055
 20
-16.85662210391434
 30
0.0
 11
-23.16899685277055
 21
-16.87981990391435
 31
0.0
  0
LINE
  5
27C
330
1F
100
AcDbEntity
  8
0
100
AcDbLine
 10
-23.16899685277055
 20
-16.87981990391435
 30
0.0
 11
-23.24464385277056
 21
-16.94941690391434
 31
0.0
  0
LINE
  5
27D
330
1F
100
AcDbEntity
  8
0
100
AcDbLine
 10
-23.24464385277056
 20
-16.94941690391434
 30
0.0
 11
-23.29204985277056
 21
-17.06238450391436
 31
0.0
  0
LINE
  5
27E
330
1F
100
AcDbEntity
  8
0
100
AcDbLine
 10
-23.29204985277056
 20
-17.06238450391436
 30
0.0
 11
-23.30718045277055
 21
-17.21973470391434
 31
0.0
  0
LINE
  5
27F
330
1F
100
AcDbEntity
  8
0
100
AcDbLine
 10
-23.21035125277055
 20
-17.21973470391434
 30
0.0
 11
-23.20228245277055
 21
-17.09768810391435
 31
0.0
  0
LINE
  5
280
330
1F
100
AcDbEntity
  8
0
100
AcDbLine
 10
-23.20228245277055
 20
-17.09768810391435
 30
0.0
 11
-23.17706585277055
 21
-17.00993550391435
 31
0.0
  0
LINE
  5
281
330
1F
100
AcDbEntity
  8
0
100
AcDbLine
 10
-23.17706585277055
 20
-17.00993550391435
 30
0.0
 11
-23.13167705277056
 21
-16.95849430391435
 31
0.0
  0
LINE
  5
282
330
1F
100
AcDbEntity
  8
0
100
AcDbLine
 10
-23.13167705277056
 20
-16.95849430391435
 30
0.0
 11
-23.06409885277055
 21
-16.94033930391435
 31
0.0
  0
LINE
  5
283
330
1F
100
AcDbEntity
  8
0
100
AcDbLine
 10
-23.06409885277055
 20
-16.94033930391435
 30
0.0
 11
-22.99752785277055
 21
-16.95849430391435
 31
0.0
  0
LINE
  5
284
330
1F
100
AcDbEntity
  8
0
100
AcDbLine
 10
-22.99752785277055
 20
-16.95849430391435
 30
0.0
 11
-22.95213905277056
 21
-17.00993550391435
 31
0.0
  0
LINE
  5
285
330
1F
100
AcDbEntity
  8
0
100
AcDbLine
 10
-22.95213905277056
 20
-17.00993550391435
 30
0.0
 11
-22.92692225277055
 21
-17.09768810391435
 31
0.0
  0
LINE
  5
286
330
1F
100
AcDbEntity
  8
0
100
AcDbLine
 10
-22.92692225277055
 20
-17.09768810391435
 30
0.0
 11
-22.91885345277056
 21
-17.21973470391434
 31
0.0
  0
LINE
  5
287
330
1F
100
AcDbEntity
  8
0
100
AcDbLine
 10
-22.91885345277056
 20
-17.21973470391434
 30
0.0
 11
-22.92692225277055
 21
-17.34278910391435
 31
0.0
  0
LINE
  5
288
330
1F
100
AcDbEntity
  8
0
100
AcDbLine
 10
-22.92692225277055
 20
-17.34278910391435
 30
0.0
 11
-22.95213905277056
 21
-17.43054090391435
 31
0.0
  0
LINE
  5
289
330
1F
100
AcDbEntity
  8
0
100
AcDbLine
 10
-22.95213905277056
 20
-17.43054090391435
 30
0.0
 11
-22.99752785277055
 21
-17.48198130391435
 31
0.0
  0
LINE
  5
28A
330
1F
100
AcDbEntity
  8
0
100
AcDbLine
 10
-22.99752785277055
 20
-17.48198130391435
 30
0.0
 11
-23.06409885277055
 21
-17.49912850391435
 31
0.0
  0
LINE
  5
28B
330
1F
100
AcDbEntity
  8
0
100
AcDbLine
 10
-23.06409885277055
 20
-17.49912850391435
 30
0.0
 11
-23.13167705277056
 21
-17.48198130391435
 31
0.0
  0
LINE
  5
28C
330
1F
100
AcDbEntity
  8
0
100
AcDbLine
 10
-23.13167705277056
 20
-17.48198130391435
 30
0.0
 11
-23.17706585277055
 21
-17.43054090391435
 31
0.0
  0
LINE
  5
28D
330
1F
100
AcDbEntity
  8
0
100
AcDbLine
 10
-23.17706585277055
 20
-17.43054090391435
 30
0.0
 11
-23.20228245277055
 21
-17.34278910391435
 31
0.0
  0
LINE
  5
28E
330
1F
100
AcDbEntity
  8
0
100
AcDbLine
 10
-23.20228245277055
 20
-17.34278910391435
 30
0.0
 11
-23.21035125277055
 21
-17.21973470391434
 31
0.0
  0
LINE
  5
28F
330
1F
100
AcDbEntity
  8
0
100
AcDbLine
 10
-22.62049525277055
 20
-16.86166350391436
 30
0.0
 11
-22.57382785277055
 21
-16.86166350391436
 31
0.0
  0
LINE
  5
290
330
1F
100
AcDbEntity
  8
0
100
AcDbLine
 10
-22.57382785277055
 20
-16.86166350391436
 30
0.0
 11
-22.52716045277056
 21
-16.81499750391435
 31
0.0
  0
LINE
  5
291
330
1F
100
AcDbEntity
  8
0
100
AcDbLine
 10
-22.52716045277056
 20
-16.81499750391435
 30
0.0
 11
-22.52716045277056
 21
-16.76833090391435
 31
0.0
  0
LINE
  5
292
330
1F
100
AcDbEntity
  8
0
100
AcDbLine
 10
-22.52716045277056
 20
-16.76833090391435
 30
0.0
 11
-22.57382785277055
 21
-16.72166410391434
 31
0.0
  0
LINE
  5
293
330
1F
100
AcDbEntity
  8
0
100
AcDbLine
 10
-22.57382785277055
 20
-16.72166410391434
 30
0.0
 11
-22.62049525277055
 21
-16.72166410391434
 31
0.0
  0
LINE
  5
294
330
1F
100
AcDbEntity
  8
0
100
AcDbLine
 10
-22.62049525277055
 20
-16.72166410391434
 30
0.0
 11
-22.66716285277056
 21
-16.76833090391435
 31
0.0
  0
LINE
  5
295
330
1F
100
AcDbEntity
  8
0
100
AcDbLine
 10
-22.66716285277056
 20
-16.76833090391435
 30
0.0
 11
-22.66716285277056
 21
-16.81499750391435
 31
0.0
  0
LINE
  5
296
330
1F
100
AcDbEntity
  8
0
100
AcDbLine
 10
-22.66716285277056
 20
-16.81499750391435
 30
0.0
 11
-22.62049525277055
 21
-16.86166350391436
 31
0.0
  0
LINE
  5
297
330
1F
100
AcDbEntity
  8
0
100
AcDbLine
 10
-28.10387545277055
 20
-15.44130530391435
 30
0.0
 11
-28.44417245277055
 21
-15.78160070391436
 31
0.0
  0
LINE
  5
298
330
1F
100
AcDbEntity
  8
0
100
AcDbLine
 10
-18.25819065277056
 20
-15.44130530391435
 30
0.0
 11
-17.91789525277057
 21
-15.78160070391436
 31
0.0
  0
LINE
  5
299
330
1F
100
AcDbEntity
  8
0
100
AcDbLine
 10
-28.09776125277055
 20
-15.98160070391434
 30
0.0
 11
-28.44417245277055
 21
-15.78160070391436
 31
0.0
  0
LINE
  5
29A
330
1F
100
AcDbEntity
  8
0
100
AcDbLine
 10
-28.44417245277055
 20
-15.78160070391436
 30
0.0
 11
-28.24417085277056
 21
-16.12801110391435
 31
0.0
  0
LINE
  5
29B
330
1F
100
AcDbEntity
  8
0
100
AcDbLine
 10
-18.11789525277057
 20
-16.12801110391435
 30
0.0
 11
-17.91789525277057
 21
-15.78160070391436
 31
0.0
  0
LINE
  5
29C
330
1F
100
AcDbEntity
  8
0
100
AcDbLine
 10
-17.91789525277057
 20
-15.78160070391436
 30
0.0
 11
-18.26430325277056
 21
-15.98160070391434
 31
0.0
  0
LINE
  5
29D
330
1F
100
AcDbEntity
  8
0
100
AcDbLine
 10
-28.44417245277055
 20
-15.78160070391436
 30
0.0
 11
-28.07273295485349
 21
-16.12850052250353
 31
0.0
  0
LINE
  5
29E
330
1F
100
AcDbEntity
  8
0
100
AcDbLine
 10
-28.07273295485349
 20
-16.12850052250353
 30
0.0
 11
-27.67848674858213
 21
-16.44924360757097
 31
0.0
  0
LINE
  5
29F
330
1F
100
AcDbEntity
  8
0
100
AcDbLine
 10
-27.67848674858213
 20
-16.44924360757097
 30
0.0
 11
-27.26327134079757
 21
-16.74233465642143
 31
0.0
  0
LINE
  5
2A0
330
1F
100
AcDbEntity
  8
0
100
AcDbLine
 10
-27.26327134079757
 20
-16.74233465642143
 30
0.0
 11
-26.82902265705818
 21
-17.00640714353161
 31
0.0
  0
LINE
  5
2A1
330
1F
100
AcDbEntity
  8
0
100
AcDbLine
 10
-26.82902265705818
 20
-17.00640714353161
 30
0.0
 11
-26.37776536482517
 21
-17.24022984128455
 31
0.0
  0
LINE
  5
2A2
330
1F
100
AcDbEntity
  8
0
100
AcDbLine
 10
-26.37776536482517
 20
-17.24022984128455
 30
0.0
 11
-25.9116034335299
 21
-17.44271256052008
 31
0.0
  0
LINE
  5
2A3
330
1F
100
AcDbEntity
  8
0
100
AcDbLine
 10
-25.9116034335299
 20
-17.44271256052008
 30
0.0
 11
-25.43271032489901
 21
-17.61291123349903
 31
0.0
  0
LINE
  5
2A4
330
1F
100
AcDbEntity
  8
0
100
AcDbLine
 10
-25.43271032489901
 20
-17.61291123349903
 30
0.0
 11
-24.94331885927429
 21
-17.75003231558209
 31
0.0
  0
LINE
  5
2A5
330
1F
100
AcDbEntity
  8
0
100
AcDbLine
 10
-24.94331885927429
 20
-17.75003231558209
 30
0.0
 11
-24.44571080517532
 21
-17.8534364851005
 31
0.0
  0
LINE
  5
2A6
330
1F
100
AcDbEntity
  8
0
100
AcDbLine
 10
-24.44571080517532
 20
-17.8534364851005
 30
0.0
 11
-23.94220624064333
 21
-17.92264162416833
 31
0.0
  0
LINE
  5
2A7
330
1F
100
AcDbEntity
  8
0
100
AcDbLine
 10
-23.94220624064333
 20
-17.92264162416833
 30
0.0
 11
-23.4351527359682
 21
-17.95732506653817
 31
0.0
  0
LINE
  5
2A8
330
1F
100
AcDbEntity
  8
0
100
AcDbLine
 10
-23.4351527359682
 20
-17.95732506653817
 30
0.0
 11
-22.9269144082341
 21
-17.9573251020199
 31
0.0
  0
LINE
  5
2A9
330
1F
100
AcDbEntity
  8
0
100
AcDbLine
 10
-22.9269144082341
 20
-17.9573251020199
 30
0.0
 11
-22.41986089871626
 21
-17.92264173044808
 31
0.0
  0
LINE
  5
2AA
330
1F
100
AcDbEntity
  8
0
100
AcDbLine
 10
-22.41986089871626
 20
-17.92264173044808
 30
0.0
 11
-21.91635632452141
 21
-17.85343666168276
 31
0.0
  0
LINE
  5
2AB
330
1F
100
AcDbEntity
  8
0
100
AcDbLine
 10
-21.91635632452141
 20
-17.85343666168276
 30
0.0
 11
-21.41874825598451
 21
-17.75003256164354
 31
0.0
  0
LINE
  5
2AC
330
1F
100
AcDbEntity
  8
0
100
AcDbLine
 10
-21.41874825598451
 20
-17.75003256164354
 30
0.0
 11
-20.92935677121408
 21
-17.61291154789243
 31
0.0
  0
LINE
  5
2AD
330
1F
100
AcDbEntity
  8
0
100
AcDbLine
 10
-20.92935677121408
 20
-17.61291154789243
 30
0.0
 11
-20.45046363881899
 21
-17.44271294177955
 31
0.0
  0
LINE
  5
2AE
330
1F
100
AcDbEntity
  8
0
100
AcDbLine
 10
-20.45046363881899
 20
-17.44271294177955
 30
0.0
 11
-19.98430167925181
 21
-17.24023028763252
 31
0.0
  0
LINE
  5
2AF
330
1F
100
AcDbEntity
  8
0
100
AcDbLine
 10
-19.98430167925181
 20
-17.24023028763252
 30
0.0
 11
-19.53304435437098
 21
-17.00640765288699
 31
0.0
  0
LINE
  5
2B0
330
1F
100
AcDbEntity
  8
0
100
AcDbLine
 10
-19.53304435437098
 20
-17.00640765288699
 30
0.0
 11
-19.09879563376011
 21
-16.74233522640936
 31
0.0
  0
LINE
  5
2B1
330
1F
100
AcDbEntity
  8
0
100
AcDbLine
 10
-19.09879563376011
 20
-16.74233522640936
 30
0.0
 11
-18.68358018505232
 21
-16.44924423553392
 31
0.0
  0
LINE
  5
2B2
330
1F
100
AcDbEntity
  8
0
100
AcDbLine
 10
-18.68358018505232
 20
-16.44924423553392
 30
0.0
 11
-18.2893339339968
 21
-16.12850120551363
 31
0.0
  0
LINE
  5
2B3
330
1F
100
AcDbEntity
  8
0
100
AcDbLine
 10
-18.2893339339968
 20
-16.12850120551363
 30
0.0
 11
-17.91789525277057
 21
-15.78160070391436
 31
0.0
  0
LINE
  5
2B4
330
1F
100
AcDbEntity
  8
0
100
AcDbLine
 10
-12.36390434745352
 20
17.65158908048481
 30
0.0
 11
-12.27211654745351
 21
17.65158908048481
 31
0.0
  0
LINE
  5
2B5
330
1F
100
AcDbEntity
  8
0
100
AcDbLine
 10
-12.27211654745351
 20
17.65158908048481
 30
0.0
 11
-12.27211654745351
 21
18.35663228048481
 31
0.0
  0
LINE
  5
2B6
330
1F
100
AcDbEntity
  8
0
100
AcDbLine
 10
-12.27211654745351
 20
18.35663228048481
 30
0.0
 11
-12.34070474745351
 21
18.35663228048481
 31
0.0
  0
LINE
  5
2B7
330
1F
100
AcDbEntity
  8
0
100
AcDbLine
 10
-12.34070474745351
 20
18.35663228048481
 30
0.0
 11
-12.35885974745351
 21
18.29510568048481
 31
0.0
  0
LINE
  5
2B8
330
1F
100
AcDbEntity
  8
0
100
AcDbLine
 10
-12.35885974745351
 20
18.29510568048481
 30
0.0
 11
-12.39517254745352
 21
18.25375128048481
 31
0.0
  0
LINE
  5
2B9
330
1F
100
AcDbEntity
  8
0
100
AcDbLine
 10
-12.39517254745352
 20
18.25375128048481
 30
0.0
 11
-12.45064754745351
 21
18.22954488048481
 31
0.0
  0
LINE
  5
2BA
330
1F
100
AcDbEntity
  8
0
100
AcDbLine
 10
-12.45064754745351
 20
18.22954488048481
 30
0.0
 11
-12.5273045474535
 21
18.22147288048481
 31
0.0
  0
LINE
  5
2BB
330
1F
100
AcDbEntity
  8
0
100
AcDbLine
 10
-12.5273045474535
 20
18.22147288048481
 30
0.0
 11
-12.5273045474535
 21
18.14986028048481
 31
0.0
  0
LINE
  5
2BC
330
1F
100
AcDbEntity
  8
0
100
AcDbLine
 10
-12.5273045474535
 20
18.14986028048481
 30
0.0
 11
-12.36390434745352
 21
18.14986028048481
 31
0.0
  0
LINE
  5
2BD
330
1F
100
AcDbEntity
  8
0
100
AcDbLine
 10
-12.36390434745352
 20
18.14986028048481
 30
0.0
 11
-12.36390434745352
 21
17.65158908048481
 31
0.0
  0
LINE
  5
2BE
330
1F
100
AcDbEntity
  8
0
100
AcDbLine
 10
-11.66814014745351
 20
17.65158908048481
 30
0.0
 11
-11.52894634745351
 21
17.65158908048481
 31
0.0
  0
LINE
  5
2BF
330
1F
100
AcDbEntity
  8
0
100
AcDbLine
 10
-11.52894634745351
 20
17.65158908048481
 30
0.0
 11
-11.52894634745351
 21
17.80187748048481
 31
0.0
  0
LINE
  5
2C0
330
1F
100
AcDbEntity
  8
0
100
AcDbLine
 10
-11.52894634745351
 20
17.80187748048481
 30
0.0
 11
-11.66814014745351
 21
17.80187748048481
 31
0.0
  0
LINE
  5
2C1
330
1F
100
AcDbEntity
  8
0
100
AcDbLine
 10
-11.66814014745351
 20
17.80187748048481
 30
0.0
 11
-11.66814014745351
 21
17.65158908048481
 31
0.0
  0
LINE
  5
2C2
330
1F
100
AcDbEntity
  8
0
100
AcDbLine
 10
-10.97641034745351
 20
18.02882308048481
 30
0.0
 11
-11.02785074745351
 21
18.00058048048481
 31
0.0
  0
LINE
  5
2C3
330
1F
100
AcDbEntity
  8
0
100
AcDbLine
 10
-11.02785074745351
 20
18.00058048048481
 30
0.0
 11
-11.06315354745352
 21
17.96124348048481
 31
0.0
  0
LINE
  5
2C4
330
1F
100
AcDbEntity
  8
0
100
AcDbLine
 10
-11.06315354745352
 20
17.96124348048481
 30
0.0
 11
-11.0853459474535
 21
17.91182028048481
 31
0.0
  0
LINE
  5
2C5
330
1F
100
AcDbEntity
  8
0
100
AcDbLine
 10
-11.0853459474535
 20
17.91182028048481
 30
0.0
 11
-11.09240474745351
 21
17.85230948048481
 31
0.0
  0
LINE
  5
2C6
330
1F
100
AcDbEntity
  8
0
100
AcDbLine
 10
-11.09240474745351
 20
17.85230948048481
 30
0.0
 11
-11.0762669474535
 21
17.76254048048481
 31
0.0
  0
LINE
  5
2C7
330
1F
100
AcDbEntity
  8
0
100
AcDbLine
 10
-11.0762669474535
 20
17.76254048048481
 30
0.0
 11
-11.02986794745351
 21
17.69294348048481
 31
0.0
  0
LINE
  5
2C8
330
1F
100
AcDbEntity
  8
0
100
AcDbLine
 10
-11.02986794745351
 20
17.69294348048481
 30
0.0
 11
-10.95422114745351
 21
17.64856328048481
 31
0.0
  0
LINE
  5
2C9
330
1F
100
AcDbEntity
  8
0
100
AcDbLine
 10
-10.95422114745351
 20
17.64856328048481
 30
0.0
 11
-10.85134014745351
 21
17.63141708048481
 31
0.0
  0
LINE
  5
2CA
330
1F
100
AcDbEntity
  8
0
100
AcDbLine
 10
-10.85134014745351
 20
17.63141708048481
 30
0.0
 11
-10.74946634745351
 21
17.64856328048481
 31
0.0
  0
LINE
  5
2CB
330
1F
100
AcDbEntity
  8
0
100
AcDbLine
 10
-10.74946634745351
 20
17.64856328048481
 30
0.0
 11
-10.67381634745351
 21
17.69294348048481
 31
0.0
  0
LINE
  5
2CC
330
1F
100
AcDbEntity
  8
0
100
AcDbLine
 10
-10.67381634745351
 20
17.69294348048481
 30
0.0
 11
-10.62742054745351
 21
17.76254048048481
 31
0.0
  0
LINE
  5
2CD
330
1F
100
AcDbEntity
  8
0
100
AcDbLine
 10
-10.62742054745351
 20
17.76254048048481
 30
0.0
 11
-10.61027274745351
 21
17.85230948048481
 31
0.0
  0
LINE
  5
2CE
330
1F
100
AcDbEntity
  8
0
100
AcDbLine
 10
-10.61027274745351
 20
17.85230948048481
 30
0.0
 11
-10.6183415474535
 21
17.91182028048481
 31
0.0
  0
LINE
  5
2CF
330
1F
100
AcDbEntity
  8
0
100
AcDbLine
 10
-10.6183415474535
 20
17.91182028048481
 30
0.0
 11
-10.63952374745351
 21
17.96124348048481
 31
0.0
  0
LINE
  5
2D0
330
1F
100
AcDbEntity
  8
0
100
AcDbLine
 10
-10.63952374745351
 20
17.96124348048481
 30
0.0
 11
-10.67583354745351
 21
18.00058048048481
 31
0.0
  0
LINE
  5
2D1
330
1F
100
AcDbEntity
  8
0
100
AcDbLine
 10
-10.67583354745351
 20
18.00058048048481
 30
0.0
 11
-10.7262669474535
 21
18.02882308048481
 31
0.0
  0
LINE
  5
2D2
330
1F
100
AcDbEntity
  8
0
100
AcDbLine
 10
-10.7262669474535
 20
18.02882308048481
 30
0.0
 11
-10.6859227474535
 21
18.05303108048481
 31
0.0
  0
LINE
  5
2D3
330
1F
100
AcDbEntity
  8
0
100
AcDbLine
 10
-10.6859227474535
 20
18.05303108048481
 30
0.0
 11
-10.65767874745351
 21
18.08631668048481
 31
0.0
  0
LINE
  5
2D4
330
1F
100
AcDbEntity
  8
0
100
AcDbLine
 10
-10.65767874745351
 20
18.08631668048481
 30
0.0
 11
-10.64053094745351
 21
18.12666088048481
 31
0.0
  0
LINE
  5
2D5
330
1F
100
AcDbEntity
  8
0
100
AcDbLine
 10
-10.64053094745351
 20
18.12666088048481
 30
0.0
 11
-10.6344791474535
 21
18.17608408048481
 31
0.0
  0
LINE
  5
2D6
330
1F
100
AcDbEntity
  8
0
100
AcDbLine
 10
-10.6344791474535
 20
18.17608408048481
 30
0.0
 11
-10.65061694745351
 21
18.24769968048481
 31
0.0
  0
LINE
  5
2D7
330
1F
100
AcDbEntity
  8
0
100
AcDbLine
 10
-10.65061694745351
 20
18.24769968048481
 30
0.0
 11
-10.6929813474535
 21
18.30519168048481
 31
0.0
  0
LINE
  5
2D8
330
1F
100
AcDbEntity
  8
0
100
AcDbLine
 10
-10.6929813474535
 20
18.30519168048481
 30
0.0
 11
-10.76156974745351
 21
18.34251168048482
 31
0.0
  0
LINE
  5
2D9
330
1F
100
AcDbEntity
  8
0
100
AcDbLine
 10
-10.76156974745351
 20
18.34251168048482
 30
0.0
 11
-10.85134014745351
 21
18.35663228048481
 31
0.0
  0
LINE
  5
2DA
330
1F
100
AcDbEntity
  8
0
100
AcDbLine
 10
-10.85134014745351
 20
18.35663228048481
 30
0.0
 11
-10.94211774745351
 21
18.34251168048482
 31
0.0
  0
LINE
  5
2DB
330
1F
100
AcDbEntity
  8
0
100
AcDbLine
 10
-10.94211774745351
 20
18.34251168048482
 30
0.0
 11
-11.0107061474535
 21
18.30519168048481
 31
0.0
  0
LINE
  5
2DC
330
1F
100
AcDbEntity
  8
0
100
AcDbLine
 10
-11.0107061474535
 20
18.30519168048481
 30
0.0
 11
-11.05407754745351
 21
18.24769968048481
 31
0.0
  0
LINE
  5
2DD
330
1F
100
AcDbEntity
  8
0
100
AcDbLine
 10
-11.05407754745351
 20
18.24769968048481
 30
0.0
 11
-11.06920514745351
 21
18.17608408048481
 31
0.0
  0
LINE
  5
2DE
330
1F
100
AcDbEntity
  8
0
100
AcDbLine
 10
-11.06920514745351
 20
18.17608408048481
 30
0.0
 11
-11.06416374745352
 21
18.12666088048481
 31
0.0
  0
LINE
  5
2DF
330
1F
100
AcDbEntity
  8
0
100
AcDbLine
 10
-11.06416374745352
 20
18.12666088048481
 30
0.0
 11
-11.0470159474535
 21
18.08631668048481
 31
0.0
  0
LINE
  5
2E0
330
1F
100
AcDbEntity
  8
0
100
AcDbLine
 10
-11.0470159474535
 20
18.08631668048481
 30
0.0
 11
-10.97641034745351
 21
18.02882308048481
 31
0.0
  0
LINE
  5
2E1
330
1F
100
AcDbEntity
  8
0
100
AcDbLine
 10
-10.9955753474535
 20
17.85432668048481
 30
0.0
 11
-10.98649654745351
 21
17.90778568048481
 31
0.0
  0
LINE
  5
2E2
330
1F
100
AcDbEntity
  8
0
100
AcDbLine
 10
-10.98649654745351
 20
17.90778568048481
 30
0.0
 11
-10.95724534745351
 21
17.94813148048481
 31
0.0
  0
LINE
  5
2E3
330
1F
100
AcDbEntity
  8
0
100
AcDbLine
 10
-10.95724534745351
 20
17.94813148048481
 30
0.0
 11
-10.91185654745351
 21
17.97435528048481
 31
0.0
  0
LINE
  5
2E4
330
1F
100
AcDbEntity
  8
0
100
AcDbLine
 10
-10.91185654745351
 20
17.97435528048481
 30
0.0
 11
-10.85134014745351
 21
17.98343428048481
 31
0.0
  0
LINE
  5
2E5
330
1F
100
AcDbEntity
  8
0
100
AcDbLine
 10
-10.85134014745351
 20
17.98343428048481
 30
0.0
 11
-10.79182794745351
 21
17.97435528048481
 31
0.0
  0
LINE
  5
2E6
330
1F
100
AcDbEntity
  8
0
100
AcDbLine
 10
-10.79182794745351
 20
17.97435528048481
 30
0.0
 11
-10.74643914745351
 21
17.94813148048481
 31
0.0
  0
LINE
  5
2E7
330
1F
100
AcDbEntity
  8
0
100
AcDbLine
 10
-10.74643914745351
 20
17.94813148048481
 30
0.0
 11
-10.71719094745351
 21
17.90778568048481
 31
0.0
  0
LINE
  5
2E8
330
1F
100
AcDbEntity
  8
0
100
AcDbLine
 10
-10.71719094745351
 20
17.90778568048481
 30
0.0
 11
-10.70710194745351
 21
17.85432668048481
 31
0.0
  0
LINE
  5
2E9
330
1F
100
AcDbEntity
  8
0
100
AcDbLine
 10
-10.70710194745351
 20
17.85432668048481
 30
0.0
 11
-10.71719094745351
 21
17.79683448048482
 31
0.0
  0
LINE
  5
2EA
330
1F
100
AcDbEntity
  8
0
100
AcDbLine
 10
-10.71719094745351
 20
17.79683448048482
 30
0.0
 11
-10.74643914745351
 21
17.75346288048481
 31
0.0
  0
LINE
  5
2EB
330
1F
100
AcDbEntity
  8
0
100
AcDbLine
 10
-10.74643914745351
 20
17.75346288048481
 30
0.0
 11
-10.79182794745351
 21
17.72522048048481
 31
0.0
  0
LINE
  5
2EC
330
1F
100
AcDbEntity
  8
0
100
AcDbLine
 10
-10.79182794745351
 20
17.72522048048481
 30
0.0
 11
-10.85134014745351
 21
17.71614308048481
 31
0.0
  0
LINE
  5
2ED
330
1F
100
AcDbEntity
  8
0
100
AcDbLine
 10
-10.85134014745351
 20
17.71614308048481
 30
0.0
 11
-10.91185654745351
 21
17.72522048048481
 31
0.0
  0
LINE
  5
2EE
330
1F
100
AcDbEntity
  8
0
100
AcDbLine
 10
-10.91185654745351
 20
17.72522048048481
 30
0.0
 11
-10.95724534745351
 21
17.75346288048481
 31
0.0
  0
LINE
  5
2EF
330
1F
100
AcDbEntity
  8
0
100
AcDbLine
 10
-10.95724534745351
 20
17.75346288048481
 30
0.0
 11
-10.98649654745351
 21
17.79683448048482
 31
0.0
  0
LINE
  5
2F0
330
1F
100
AcDbEntity
  8
0
100
AcDbLine
 10
-10.98649654745351
 20
17.79683448048482
 30
0.0
 11
-10.9955753474535
 21
17.85432668048481
 31
0.0
  0
LINE
  5
2F1
330
1F
100
AcDbEntity
  8
0
100
AcDbLine
 10
-10.97338614745351
 20
18.16801528048481
 30
0.0
 11
-10.96531414745352
 21
18.21239688048481
 31
0.0
  0
LINE
  5
2F2
330
1F
100
AcDbEntity
  8
0
100
AcDbLine
 10
-10.96531414745352
 20
18.21239688048481
 30
0.0
 11
-10.94110774745351
 21
18.24668948048481
 31
0.0
  0
LINE
  5
2F3
330
1F
100
AcDbEntity
  8
0
100
AcDbLine
 10
-10.94110774745351
 20
18.24668948048481
 30
0.0
 11
-10.90278054745351
 21
18.26787188048482
 31
0.0
  0
LINE
  5
2F4
330
1F
100
AcDbEntity
  8
0
100
AcDbLine
 10
-10.90278054745351
 20
18.26787188048482
 30
0.0
 11
-10.85134014745351
 21
18.2759406804848
 31
0.0
  0
LINE
  5
2F5
330
1F
100
AcDbEntity
  8
0
100
AcDbLine
 10
-10.85134014745351
 20
18.2759406804848
 30
0.0
 11
-10.80090694745351
 21
18.26787188048482
 31
0.0
  0
LINE
  5
2F6
330
1F
100
AcDbEntity
  8
0
100
AcDbLine
 10
-10.80090694745351
 20
18.26787188048482
 30
0.0
 11
-10.76257674745351
 21
18.24668948048481
 31
0.0
  0
LINE
  5
2F7
330
1F
100
AcDbEntity
  8
0
100
AcDbLine
 10
-10.76257674745351
 20
18.24668948048481
 30
0.0
 11
-10.73837014745351
 21
18.21239688048481
 31
0.0
  0
LINE
  5
2F8
330
1F
100
AcDbEntity
  8
0
100
AcDbLine
 10
-10.73837014745351
 20
18.21239688048481
 30
0.0
 11
-10.72929134745351
 21
18.16801528048481
 31
0.0
  0
LINE
  5
2F9
330
1F
100
AcDbEntity
  8
0
100
AcDbLine
 10
-10.72929134745351
 20
18.16801528048481
 30
0.0
 11
-10.73837014745351
 21
18.12262648048481
 31
0.0
  0
LINE
  5
2FA
330
1F
100
AcDbEntity
  8
0
100
AcDbLine
 10
-10.73837014745351
 20
18.12262648048481
 30
0.0
 11
-10.76257674745351
 21
18.08732368048481
 31
0.0
  0
LINE
  5
2FB
330
1F
100
AcDbEntity
  8
0
100
AcDbLine
 10
-10.76257674745351
 20
18.08732368048481
 30
0.0
 11
-10.80090694745351
 21
18.06412588048481
 31
0.0
  0
LINE
  5
2FC
330
1F
100
AcDbEntity
  8
0
100
AcDbLine
 10
-10.80090694745351
 20
18.06412588048481
 30
0.0
 11
-10.85134014745351
 21
18.05706548048481
 31
0.0
  0
LINE
  5
2FD
330
1F
100
AcDbEntity
  8
0
100
AcDbLine
 10
-10.85134014745351
 20
18.05706548048481
 30
0.0
 11
-10.90278054745351
 21
18.06513448048481
 31
0.0
  0
LINE
  5
2FE
330
1F
100
AcDbEntity
  8
0
100
AcDbLine
 10
-10.90278054745351
 20
18.06513448048481
 30
0.0
 11
-10.94110774745351
 21
18.08732368048481
 31
0.0
  0
LINE
  5
2FF
330
1F
100
AcDbEntity
  8
0
100
AcDbLine
 10
-10.94110774745351
 20
18.08732368048481
 30
0.0
 11
-10.96531414745352
 21
18.12262648048481
 31
0.0
  0
LINE
  5
300
330
1F
100
AcDbEntity
  8
0
100
AcDbLine
 10
-10.96531414745352
 20
18.12262648048481
 30
0.0
 11
-10.97338614745351
 21
18.16801528048481
 31
0.0
  0
LINE
  5
301
330
1F
100
AcDbEntity
  8
0
100
AcDbLine
 10
-15.10521594745351
 20
17.47914508048481
 30
0.0
 11
-15.10521594745351
 21
17.25158908048481
 31
0.0
  0
LINE
  5
302
330
1F
100
AcDbEntity
  8
0
100
AcDbLine
 10
-13.3052159474535
 20
19.27914508048481
 30
0.0
 11
-13.3052159474535
 21
17.25158908048481
 31
0.0
  0
LINE
  5
303
330
1F
100
AcDbEntity
  8
0
100
AcDbLine
 10
-14.71884514745351
 20
17.35511708048481
 30
0.0
 11
-15.10521594745351
 21
17.25158908048481
 31
0.0
  0
LINE
  5
304
330
1F
100
AcDbEntity
  8
0
100
AcDbLine
 10
-15.10521594745351
 20
17.25158908048481
 30
0.0
 11
-14.71884514745351
 21
17.14806128048481
 31
0.0
  0
LINE
  5
305
330
1F
100
AcDbEntity
  8
0
100
AcDbLine
 10
-13.69158674745351
 20
17.14806128048481
 30
0.0
 11
-13.3052159474535
 21
17.25158908048481
 31
0.0
  0
LINE
  5
306
330
1F
100
AcDbEntity
  8
0
100
AcDbLine
 10
-13.3052159474535
 20
17.25158908048481
 30
0.0
 11
-13.69158674745351
 21
17.35511708048481
 31
0.0
  0
LINE
  5
307
330
1F
100
AcDbEntity
  8
0
100
AcDbLine
 10
-15.10521594745351
 20
17.25158908048481
 30
0.0
 11
-13.3052159474535
 21
17.25158908048481
 31
0.0
  0
LINE
  5
308
330
1F
100
AcDbEntity
  8
0
100
AcDbLine
 10
-18.32959954745351
 20
18.07562328048481
 30
0.0
 11
-18.26469474745351
 21
18.01072008048481
 31
0.0
  0
LINE
  5
309
330
1F
100
AcDbEntity
  8
0
100
AcDbLine
 10
-18.26469474745351
 20
18.01072008048481
 30
0.0
 11
-17.7661533474535
 21
18.5092628804848
 31
0.0
  0
LINE
  5
30A
330
1F
100
AcDbEntity
  8
0
100
AcDbLine
 10
-17.7661533474535
 20
18.5092628804848
 30
0.0
 11
-17.81465194745351
 21
18.55776128048481
 31
0.0
  0
LINE
  5
30B
330
1F
100
AcDbEntity
  8
0
100
AcDbLine
 10
-17.81465194745351
 20
18.55776128048481
 30
0.0
 11
-17.87099654745351
 21
18.52709128048481
 31
0.0
  0
LINE
  5
30C
330
1F
100
AcDbEntity
  8
0
100
AcDbLine
 10
-17.87099654745351
 20
18.52709128048481
 30
0.0
 11
-17.92591594745351
 21
18.52352668048481
 31
0.0
  0
LINE
  5
30D
330
1F
100
AcDbEntity
  8
0
100
AcDbLine
 10
-17.92591594745351
 20
18.52352668048481
 30
0.0
 11
-17.98226054745351
 21
18.54563668048482
 31
0.0
  0
LINE
  5
30E
330
1F
100
AcDbEntity
  8
0
100
AcDbLine
 10
-17.98226054745351
 20
18.54563668048482
 30
0.0
 11
-18.04216974745351
 21
18.59413528048481
 31
0.0
  0
LINE
  5
30F
330
1F
100
AcDbEntity
  8
0
100
AcDbLine
 10
-18.04216974745351
 20
18.59413528048481
 30
0.0
 11
-18.09280754745351
 21
18.54349748048481
 31
0.0
  0
LINE
  5
310
330
1F
100
AcDbEntity
  8
0
100
AcDbLine
 10
-18.09280754745351
 20
18.54349748048481
 30
0.0
 11
-17.97726794745351
 21
18.4279548804848
 31
0.0
  0
LINE
  5
311
330
1F
100
AcDbEntity
  8
0
100
AcDbLine
 10
-17.97726794745351
 20
18.4279548804848
 30
0.0
 11
-18.32959954745351
 21
18.07562328048481
 31
0.0
  0
LINE
  5
312
330
1F
100
AcDbEntity
  8
0
100
AcDbLine
 10
-17.83761954745351
 20
17.58364488048481
 30
0.0
 11
-17.73919414745351
 21
17.48521948048481
 31
0.0
  0
LINE
  5
313
330
1F
100
AcDbEntity
  8
0
100
AcDbLine
 10
-17.73919414745351
 20
17.48521948048481
 30
0.0
 11
-17.63292594745351
 21
17.59148948048481
 31
0.0
  0
LINE
  5
314
330
1F
100
AcDbEntity
  8
0
100
AcDbLine
 10
-17.63292594745351
 20
17.59148948048481
 30
0.0
 11
-17.73134814745351
 21
17.68991468048481
 31
0.0
  0
LINE
  5
315
330
1F
100
AcDbEntity
  8
0
100
AcDbLine
 10
-17.73134814745351
 20
17.68991468048481
 30
0.0
 11
-17.83761954745351
 21
17.58364488048481
 31
0.0
  0
LINE
  5
316
330
1F
100
AcDbEntity
  8
0
100
AcDbLine
 10
-17.30784054745351
 20
17.31205068048481
 30
0.0
 11
-17.3506321474535
 21
17.23787448048481
 31
0.0
  0
LINE
  5
317
330
1F
100
AcDbEntity
  8
0
100
AcDbLine
 10
-17.3506321474535
 20
17.23787448048481
 30
0.0
 11
-17.36133174745352
 21
17.15728068048481
 31
0.0
  0
LINE
  5
318
330
1F
100
AcDbEntity
  8
0
100
AcDbLine
 10
-17.36133174745352
 20
17.15728068048481
 30
0.0
 11
-17.33850754745351
 21
17.07740088048481
 31
0.0
  0
LINE
  5
319
330
1F
100
AcDbEntity
  8
0
100
AcDbLine
 10
-17.33850754745351
 20
17.07740088048481
 30
0.0
 11
-17.28359114745351
 21
17.00108568048481
 31
0.0
  0
LINE
  5
31A
330
1F
100
AcDbEntity
  8
0
100
AcDbLine
 10
-17.28359114745351
 20
17.00108568048481
 30
0.0
 11
-17.19871574745352
 21
16.94188908048481
 31
0.0
  0
LINE
  5
31B
330
1F
100
AcDbEntity
  8
0
100
AcDbLine
 10
-17.19871574745352
 20
16.94188908048481
 30
0.0
 11
-17.10742534745351
 21
16.92049168048481
 31
0.0
  0
LINE
  5
31C
330
1F
100
AcDbEntity
  8
0
100
AcDbLine
 10
-17.10742534745351
 20
16.92049168048481
 30
0.0
 11
-17.01613214745351
 21
16.94046248048481
 31
0.0
  0
LINE
  5
31D
330
1F
100
AcDbEntity
  8
0
100
AcDbLine
 10
-17.01613214745351
 20
16.94046248048481
 30
0.0
 11
-16.93125954745351
 21
16.99823368048481
 31
0.0
  0
LINE
  5
31E
330
1F
100
AcDbEntity
  8
0
100
AcDbLine
 10
-16.93125954745351
 20
16.99823368048481
 30
0.0
 11
-16.87705434745351
 21
17.07668828048481
 31
0.0
  0
LINE
  5
31F
330
1F
100
AcDbEntity
  8
0
100
AcDbLine
 10
-16.87705434745351
 20
17.07668828048481
 30
0.0
 11
-16.85922294745351
 21
17.16298748048481
 31
0.0
  0
LINE
  5
320
330
1F
100
AcDbEntity
  8
0
100
AcDbLine
 10
-16.85922294745351
 20
17.16298748048481
 30
0.0
 11
-16.8791935474535
 21
17.25000068048481
 31
0.0
  0
LINE
  5
321
330
1F
100
AcDbEntity
  8
0
100
AcDbLine
 10
-16.8791935474535
 20
17.25000068048481
 30
0.0
 11
-16.93625234745351
 21
17.33130728048481
 31
0.0
  0
LINE
  5
322
330
1F
100
AcDbEntity
  8
0
100
AcDbLine
 10
-16.93625234745351
 20
17.33130728048481
 30
0.0
 11
-16.99830074745351
 21
17.37623968048481
 31
0.0
  0
LINE
  5
323
330
1F
100
AcDbEntity
  8
0
100
AcDbLine
 10
-16.99830074745351
 20
17.37623968048481
 30
0.0
 11
-17.06320534745351
 21
17.39407108048481
 31
0.0
  0
LINE
  5
324
330
1F
100
AcDbEntity
  8
0
100
AcDbLine
 10
-17.06320534745351
 20
17.39407108048481
 30
0.0
 11
-16.90986374745351
 21
17.50747288048481
 31
0.0
  0
LINE
  5
325
330
1F
100
AcDbEntity
  8
0
100
AcDbLine
 10
-16.90986374745351
 20
17.50747288048481
 30
0.0
 11
-16.69304254745351
 21
17.29065328048481
 31
0.0
  0
LINE
  5
326
330
1F
100
AcDbEntity
  8
0
100
AcDbLine
 10
-16.69304254745351
 20
17.29065328048481
 30
0.0
 11
-16.63455854745351
 21
17.34913708048481
 31
0.0
  0
LINE
  5
327
330
1F
100
AcDbEntity
  8
0
100
AcDbLine
 10
-16.63455854745351
 20
17.34913708048481
 30
0.0
 11
-16.89916434745351
 21
17.61374288048481
 31
0.0
  0
LINE
  5
328
330
1F
100
AcDbEntity
  8
0
100
AcDbLine
 10
-16.89916434745351
 20
17.61374288048481
 30
0.0
 11
-17.20085494745351
 21
17.39050368048481
 31
0.0
  0
LINE
  5
329
330
1F
100
AcDbEntity
  8
0
100
AcDbLine
 10
-17.20085494745351
 20
17.39050368048481
 30
0.0
 11
-17.14379934745351
 21
17.33344648048481
 31
0.0
  0
LINE
  5
32A
330
1F
100
AcDbEntity
  8
0
100
AcDbLine
 10
-17.14379934745351
 20
17.33344648048481
 30
0.0
 11
-17.06890914745351
 21
17.32560188048481
 31
0.0
  0
LINE
  5
32B
330
1F
100
AcDbEntity
  8
0
100
AcDbLine
 10
-17.06890914745351
 20
17.32560188048481
 30
0.0
 11
-17.00400734745351
 21
17.28494788048481
 31
0.0
  0
LINE
  5
32C
330
1F
100
AcDbEntity
  8
0
100
AcDbLine
 10
-17.00400734745351
 20
17.28494788048481
 30
0.0
 11
-16.96620834745351
 21
17.23145668048481
 31
0.0
  0
LINE
  5
32D
330
1F
100
AcDbEntity
  8
0
100
AcDbLine
 10
-16.96620834745351
 20
17.23145668048481
 30
0.0
 11
-16.95408074745351
 21
17.17368548048481
 31
0.0
  0
LINE
  5
32E
330
1F
100
AcDbEntity
  8
0
100
AcDbLine
 10
-16.95408074745351
 20
17.17368548048481
 30
0.0
 11
-16.96691934745352
 21
17.11662828048481
 31
0.0
  0
LINE
  5
32F
330
1F
100
AcDbEntity
  8
0
100
AcDbLine
 10
-16.96691934745352
 20
17.11662828048481
 30
0.0
 11
-17.00400734745351
 21
17.06384968048481
 31
0.0
  0
LINE
  5
330
330
1F
100
AcDbEntity
  8
0
100
AcDbLine
 10
-17.00400734745351
 20
17.06384968048481
 30
0.0
 11
-17.05678454745351
 21
17.02676168048481
 31
0.0
  0
LINE
  5
331
330
1F
100
AcDbEntity
  8
0
100
AcDbLine
 10
-17.05678454745351
 20
17.02676168048481
 30
0.0
 11
-17.11455734745352
 21
17.01463688048481
 31
0.0
  0
LINE
  5
332
330
1F
100
AcDbEntity
  8
0
100
AcDbLine
 10
-17.11455734745352
 20
17.01463688048481
 30
0.0
 11
-17.1716129474535
 21
17.02747568048481
 31
0.0
  0
LINE
  5
333
330
1F
100
AcDbEntity
  8
0
100
AcDbLine
 10
-17.1716129474535
 20
17.02747568048481
 30
0.0
 11
-17.2243931474535
 21
17.06456228048481
 31
0.0
  0
LINE
  5
334
330
1F
100
AcDbEntity
  8
0
100
AcDbLine
 10
-17.2243931474535
 20
17.06456228048481
 30
0.0
 11
-17.2571995474535
 21
17.10735548048481
 31
0.0
  0
LINE
  5
335
330
1F
100
AcDbEntity
  8
0
100
AcDbLine
 10
-17.2571995474535
 20
17.10735548048481
 30
0.0
 11
-17.27003834745351
 21
17.15300208048481
 31
0.0
  0
LINE
  5
336
330
1F
100
AcDbEntity
  8
0
100
AcDbLine
 10
-17.27003834745351
 20
17.15300208048481
 30
0.0
 11
-17.26575974745351
 21
17.20007388048481
 31
0.0
  0
LINE
  5
337
330
1F
100
AcDbEntity
  8
0
100
AcDbLine
 10
-17.26575974745351
 20
17.20007388048481
 30
0.0
 11
-17.24151054745351
 21
17.24572068048481
 31
0.0
  0
LINE
  5
338
330
1F
100
AcDbEntity
  8
0
100
AcDbLine
 10
-17.24151054745351
 20
17.24572068048481
 30
0.0
 11
-17.30784054745351
 21
17.31205068048481
 31
0.0
  0
LINE
  5
339
330
1F
100
AcDbEntity
  8
0
100
AcDbLine
 10
-19.76593074745351
 20
19.09267948048481
 30
0.0
 11
-20.11233874745351
 21
19.29267948048481
 31
0.0
  0
LINE
  5
33A
330
1F
100
AcDbEntity
  8
0
100
AcDbLine
 10
-20.11233874745351
 20
19.29267948048481
 30
0.0
 11
-19.91233874745351
 21
18.94626848048481
 31
0.0
  0
LINE
  5
33B
330
1F
100
AcDbEntity
  8
0
100
AcDbLine
 10
-19.39809014745351
 20
18.43201968048481
 30
0.0
 11
-19.05167894745351
 21
18.23201968048481
 31
0.0
  0
LINE
  5
33C
330
1F
100
AcDbEntity
  8
0
100
AcDbLine
 10
-19.05167894745351
 20
18.23201968048481
 30
0.0
 11
-19.25167894745351
 21
18.57843088048481
 31
0.0
  0
LINE
  5
33D
330
1F
100
AcDbEntity
  8
0
100
AcDbLine
 10
-20.11233874745351
 20
19.29267948048481
 30
0.0
 11
-19.05167894745351
 21
18.23201968048481
 31
0.0
  0
LINE
  5
33E
330
1F
100
AcDbEntity
  8
0
100
AcDbLine
 10
-31.80521762599334
 20
25.0391458804848
 30
0.0
 11
-31.90332233492801
 21
25.03593425963505
 31
0.0
  0
LINE
  5
33F
330
1F
100
AcDbEntity
  8
0
100
AcDbLine
 10
-31.90332233492801
 20
25.03593425963505
 30
0.0
 11
-32.00100694408273
 21
25.02631316001347
 31
0.0
  0
LINE
  5
340
330
1F
100
AcDbEntity
  8
0
100
AcDbLine
 10
-32.00100694408273
 20
25.02631316001347
 30
0.0
 11
-32.0978531529457
 21
25.01032378064748
 31
0.0
  0
LINE
  5
341
330
1F
100
AcDbEntity
  8
0
100
AcDbLine
 10
-32.0978531529457
 20
25.01032378064748
 30
0.0
 11
-32.19344625116404
 21
24.98803459051734
 31
0.0
  0
LINE
  5
342
330
1F
100
AcDbEntity
  8
0
100
AcDbLine
 10
-32.19344625116404
 20
24.98803459051734
 30
0.0
 11
-32.28737689439728
 21
24.95954103536132
 31
0.0
  0
LINE
  5
343
330
1F
100
AcDbEntity
  8
0
100
AcDbLine
 10
-32.28737689439728
 20
24.95954103536132
 30
0.0
 11
-32.37924285719273
 21
24.92496512896243
 31
0.0
  0
LINE
  5
344
330
1F
100
AcDbEntity
  8
0
100
AcDbLine
 10
-32.37924285719273
 20
24.92496512896243
 30
0.0
 11
-32.46865075537669
 21
24.88445493066664
 31
0.0
  0
LINE
  5
345
330
1F
100
AcDbEntity
  8
0
100
AcDbLine
 10
-32.46865075537669
 20
24.88445493066664
 30
0.0
 11
-32.55521773058599
 21
24.83818391136998
 31
0.0
  0
LINE
  5
346
330
1F
100
AcDbEntity
  8
0
100
AcDbLine
 10
-32.55521773058599
 20
24.83818391136998
 30
0.0
 11
-32.63857308972631
 21
24.78635021068956
 31
0.0
  0
LINE
  5
347
330
1F
100
AcDbEntity
  8
0
100
AcDbLine
 10
-32.63857308972631
 20
24.78635021068956
 30
0.0
 11
-32.718359892337
 21
24.72917578849918
 31
0.0
  0
LINE
  5
348
330
1F
100
AcDbEntity
  8
0
100
AcDbLine
 10
-32.718359892337
 20
24.72917578849918
 30
0.0
 11
-32.79423647906501
 21
24.66690547446316
 31
0.0
  0
LINE
  5
349
330
1F
100
AcDbEntity
  8
0
100
AcDbLine
 10
-32.79423647906501
 20
24.66690547446316
 30
0.0
 11
-32.86587793470274
 21
24.59980591963792
 31
0.0
  0
LINE
  5
34A
330
1F
100
AcDbEntity
  8
0
100
AcDbLine
 10
-32.86587793470274
 20
24.59980591963792
 30
0.0
 11
-32.93297747952494
 21
24.52816445463131
 31
0.0
  0
LINE
  5
34B
330
1F
100
AcDbEntity
  8
0
100
AcDbLine
 10
-32.93297747952494
 20
24.52816445463131
 30
0.0
 11
-32.99524778296661
 21
24.45228785920874
 31
0.0
  0
LINE
  5
34C
330
1F
100
AcDbEntity
  8
0
100
AcDbLine
 10
-32.99524778296661
 20
24.45228785920874
 30
0.0
 11
-33.05242219401662
 21
24.37250104861499
 31
0.0
  0
LINE
  5
34D
330
1F
100
AcDbEntity
  8
0
100
AcDbLine
 10
-33.05242219401662
 20
24.37250104861499
 30
0.0
 11
-33.10425588305845
 21
24.28914568223733
 31
0.0
  0
LINE
  5
34E
330
1F
100
AcDbEntity
  8
0
100
AcDbLine
 10
-33.10425588305845
 20
24.28914568223733
 30
0.0
 11
-33.15052689026808
 21
24.20257870056737
 31
0.0
  0
LINE
  5
34F
330
1F
100
AcDbEntity
  8
0
100
AcDbLine
 10
-33.15052689026808
 20
24.20257870056737
 30
0.0
 11
-33.19103707608017
 21
24.11317079672711
 31
0.0
  0
LINE
  5
350
330
1F
100
AcDbEntity
  8
0
100
AcDbLine
 10
-33.19103707608017
 20
24.11317079672711
 30
0.0
 11
-33.22561296965215
 21
24.02130482910397
 31
0.0
  0
LINE
  5
351
330
1F
100
AcDbEntity
  8
0
100
AcDbLine
 10
-33.22561296965215
 20
24.02130482910397
 30
0.0
 11
-33.25410651169299
 21
23.92737418189227
 31
0.0
  0
LINE
  5
352
330
1F
100
AcDbEntity
  8
0
100
AcDbLine
 10
-33.25410651169299
 20
23.92737418189227
 30
0.0
 11
-33.27639568847581
 21
23.83178108056178
 31
0.0
  0
LINE
  5
353
330
1F
100
AcDbEntity
  8
0
100
AcDbLine
 10
-33.27639568847581
 20
23.83178108056178
 30
0.0
 11
-33.2923850543195
 21
23.73493486946627
 31
0.0
  0
LINE
  5
354
330
1F
100
AcDbEntity
  8
0
100
AcDbLine
 10
-33.2923850543195
 20
23.73493486946627
 30
0.0
 11
-33.30200614030176
 21
23.63725025896819
 31
0.0
  0
LINE
  5
355
330
1F
100
AcDbEntity
  8
0
100
AcDbLine
 10
-33.30200614030176
 20
23.63725025896819
 30
0.0
 11
-33.3052177474535
 21
23.53914554958509
 31
0.0
  0
LINE
  5
356
330
1F
100
AcDbEntity
  8
0
100
AcDbLine
 10
-33.3052177474535
 20
23.53914554958509
 30
0.0
 11
-33.30521754745351
 21
19.67914508048481
 31
0.0
  0
LINE
  5
357
330
1F
100
AcDbEntity
  8
0
100
AcDbLine
 10
-33.30521754745351
 20
19.67914508048481
 30
0.0
 11
-31.50521594745351
 21
17.87914508048481
 31
0.0
  0
LINE
  5
358
330
1F
100
AcDbEntity
  8
0
100
AcDbLine
 10
-31.50521594745351
 20
20.53848348048481
 30
0.0
 11
-31.50521594745351
 21
17.87914508048481
 31
0.0
  0
LINE
  5
359
330
1F
100
AcDbEntity
  8
0
100
AcDbLine
 10
-29.86521654745351
 20
20.53848348048481
 30
0.0
 11
-27.20587654745351
 21
17.87914508048481
 31
0.0
  0
LINE
  5
35A
330
1F
100
AcDbEntity
  8
0
100
AcDbLine
 10
-27.20587654745351
 20
17.87914508048481
 30
0.0
 11
-27.20587654745351
 21
15.23914408048481
 31
0.0
  0
LINE
  5
35B
330
1F
100
AcDbEntity
  8
0
100
AcDbLine
 10
-27.20587654745351
 20
15.23914408048481
 30
0.0
 11
-27.00587654745351
 21
15.03914408048481
 31
0.0
  0
LINE
  5
35C
330
1F
100
AcDbEntity
  8
0
100
AcDbLine
 10
-27.20587654745351
 20
14.83914408048481
 30
0.0
 11
-27.00587654745351
 21
15.03914408048481
 31
0.0
  0
LINE
  5
35D
330
1F
100
AcDbEntity
  8
0
100
AcDbLine
 10
-27.20587654745351
 20
12.19914328048481
 30
0.0
 11
-27.20587654745351
 21
14.83914408048481
 31
0.0
  0
LINE
  5
35E
330
1F
100
AcDbEntity
  8
0
100
AcDbLine
 10
-29.86521654745351
 20
9.539803280484813
 30
0.0
 11
-27.20587654745351
 21
12.19914328048481
 31
0.0
  0
LINE
  5
35F
330
1F
100
AcDbEntity
  8
0
100
AcDbLine
 10
-31.50521594745351
 20
9.539803280484813
 30
0.0
 11
-31.50521594745351
 21
12.19914328048481
 31
0.0
  0
LINE
  5
360
330
1F
100
AcDbEntity
  8
0
100
AcDbLine
 10
-33.30521754745351
 20
10.39914328048481
 30
0.0
 11
-31.50521594745351
 21
12.19914328048481
 31
0.0
  0
LINE
  5
361
330
1F
100
AcDbEntity
  8
0
100
AcDbLine
 10
-23.50521594745351
 20
11.13848348048481
 30
0.0
 11
-26.14521694745351
 21
11.13848348048481
 31
0.0
  0
LINE
  5
362
330
1F
100
AcDbEntity
  8
0
100
AcDbLine
 10
-23.50521594745351
 20
11.13848348048481
 30
0.0
 11
-23.3052159474535
 21
11.33848348048481
 31
0.0
  0
LINE
  5
363
330
1F
100
AcDbEntity
  8
0
100
AcDbLine
 10
-23.10521594745351
 20
11.13848348048481
 30
0.0
 11
-23.3052159474535
 21
11.33848348048481
 31
0.0
  0
LINE
  5
364
330
1F
100
AcDbEntity
  8
0
100
AcDbLine
 10
-23.10521594745351
 20
11.13848348048481
 30
0.0
 11
-20.46521654745351
 21
11.13848348048481
 31
0.0
  0
LINE
  5
365
330
1F
100
AcDbEntity
  8
0
100
AcDbLine
 10
-19.40455674745351
 20
12.19914328048481
 30
0.0
 11
-19.40455674745351
 21
14.83914408048481
 31
0.0
  0
LINE
  5
366
330
1F
100
AcDbEntity
  8
0
100
AcDbLine
 10
-19.40455674745351
 20
14.83914408048481
 30
0.0
 11
-19.60455674745351
 21
15.03914408048481
 31
0.0
  0
LINE
  5
367
330
1F
100
AcDbEntity
  8
0
100
AcDbLine
 10
-19.40455674745351
 20
15.23914408048481
 30
0.0
 11
-19.60455674745351
 21
15.03914408048481
 31
0.0
  0
LINE
  5
368
330
1F
100
AcDbEntity
  8
0
100
AcDbLine
 10
-19.40455674745351
 20
17.87914508048481
 30
0.0
 11
-19.40455674745351
 21
15.23914408048481
 31
0.0
  0
LINE
  5
369
330
1F
100
AcDbEntity
  8
0
100
AcDbLine
 10
-16.74521534745351
 20
20.53848348048481
 30
0.0
 11
-19.05167894745351
 21
18.23201968048481
 31
0.0
  0
LINE
  5
36A
330
1F
100
AcDbEntity
  8
0
100
AcDbLine
 10
-15.10521594745351
 20
20.53848348048481
 30
0.0
 11
-15.10521594745351
 21
17.87914508048481
 31
0.0
  0
LINE
  5
36B
330
1F
100
AcDbEntity
  8
0
100
AcDbLine
 10
-13.3052159474535
 20
19.67914508048481
 30
0.0
 11
-15.10521594745351
 21
17.87914508048481
 31
0.0
  0
LINE
  5
36C
330
1F
100
AcDbEntity
  8
0
100
AcDbLine
 10
-13.3052159474535
 20
23.53914568048481
 30
0.0
 11
-13.3052159474535
 21
19.67914508048481
 31
0.0
  0
LINE
  5
36D
330
1F
100
AcDbEntity
  8
0
100
AcDbLine
 10
-13.3052159474535
 20
23.53914568048481
 30
0.0
 11
-13.30842736323784
 21
23.63725039067613
 31
0.0
  0
LINE
  5
36E
330
1F
100
AcDbEntity
  8
0
100
AcDbLine
 10
-13.30842736323784
 20
23.63725039067613
 30
0.0
 11
-13.3180484579581
 21
23.73493500140911
 31
0.0
  0
LINE
  5
36F
330
1F
100
AcDbEntity
  8
0
100
AcDbLine
 10
-13.3180484579581
 20
23.73493500140911
 30
0.0
 11
-13.33403783260689
 21
23.83178121215591
 31
0.0
  0
LINE
  5
370
330
1F
100
AcDbEntity
  8
0
100
AcDbLine
 10
-13.33403783260689
 20
23.83178121215591
 30
0.0
 11
-13.35632701822267
 21
23.92737431254634
 31
0.0
  0
LINE
  5
371
330
1F
100
AcDbEntity
  8
0
100
AcDbLine
 10
-13.35632701822267
 20
23.92737431254634
 30
0.0
 11
-13.38482056908436
 21
24.02130495822155
 31
0.0
  0
LINE
  5
372
330
1F
100
AcDbEntity
  8
0
100
AcDbLine
 10
-13.38482056908436
 20
24.02130495822155
 30
0.0
 11
-13.41939647142463
 21
24.11317092370947
 31
0.0
  0
LINE
  5
373
330
1F
100
AcDbEntity
  8
0
100
AcDbLine
 10
-13.41939647142463
 20
24.11317092370947
 30
0.0
 11
-13.45990666591162
 21
24.20257882481612
 31
0.0
  0
LINE
  5
374
330
1F
100
AcDbEntity
  8
0
100
AcDbLine
 10
-13.45990666591162
 20
24.20257882481612
 30
0.0
 11
-13.50617768166173
 21
24.2891458031573
 31
0.0
  0
LINE
  5
375
330
1F
100
AcDbEntity
  8
0
100
AcDbLine
 10
-13.50617768166173
 20
24.2891458031573
 30
0.0
 11
-13.55801137906866
 21
24.37250116561707
 31
0.0
  0
LINE
  5
376
330
1F
100
AcDbEntity
  8
0
100
AcDbLine
 10
-13.55801137906866
 20
24.37250116561707
 30
0.0
 11
-13.61518579826765
 21
24.45228797171261
 31
0.0
  0
LINE
  5
377
330
1F
100
AcDbEntity
  8
0
100
AcDbLine
 10
-13.61518579826765
 20
24.45228797171261
 30
0.0
 11
-13.67745610960182
 21
24.52816456206836
 31
0.0
  0
LINE
  5
378
330
1F
100
AcDbEntity
  8
0
100
AcDbLine
 10
-13.67745610960182
 20
24.52816456206836
 30
0.0
 11
-13.74455566202035
 21
24.599806021454
 31
0.0
  0
LINE
  5
379
330
1F
100
AcDbEntity
  8
0
100
AcDbLine
 10
-13.74455566202035
 20
24.599806021454
 30
0.0
 11
-13.81619712491931
 21
24.66690557012139
 31
0.0
  0
LINE
  5
37A
330
1F
100
AcDbEntity
  8
0
100
AcDbLine
 10
-13.81619712491931
 20
24.66690557012139
 30
0.0
 11
-13.89207371853554
 21
24.72917587748267
 31
0.0
  0
LINE
  5
37B
330
1F
100
AcDbEntity
  8
0
100
AcDbLine
 10
-13.89207371853554
 20
24.72917587748267
 30
0.0
 11
-13.97186052762472
 21
24.78635029250404
 31
0.0
  0
LINE
  5
37C
330
1F
100
AcDbEntity
  8
0
100
AcDbLine
 10
-13.97186052762472
 20
24.78635029250404
 30
0.0
 11
-14.05521589279849
 21
24.83818398554648
 31
0.0
  0
LINE
  5
37D
330
1F
100
AcDbEntity
  8
0
100
AcDbLine
 10
-14.05521589279849
 20
24.83818398554648
 30
0.0
 11
-14.14178287356242
 21
24.88445499676397
 31
0.0
  0
LINE
  5
37E
330
1F
100
AcDbEntity
  8
0
100
AcDbLine
 10
-14.14178287356242
 20
24.88445499676397
 30
0.0
 11
-14.23119077679018
 21
24.92496518656957
 31
0.0
  0
LINE
  5
37F
330
1F
100
AcDbEntity
  8
0
100
AcDbLine
 10
-14.23119077679018
 20
24.92496518656957
 30
0.0
 11
-14.32305674408848
 21
24.95954108409974
 31
0.0
  0
LINE
  5
380
330
1F
100
AcDbEntity
  8
0
100
AcDbLine
 10
-14.32305674408848
 20
24.95954108409974
 30
0.0
 11
-14.41698739125561
 21
24.98803463004324
 31
0.0
  0
LINE
  5
381
330
1F
100
AcDbEntity
  8
0
100
AcDbLine
 10
-14.41698739125561
 20
24.98803463004324
 30
0.0
 11
-14.51258049281311
 21
25.01032381065378
 31
0.0
  0
LINE
  5
382
330
1F
100
AcDbEntity
  8
0
100
AcDbLine
 10
-14.51258049281311
 20
25.01032381065378
 30
0.0
 11
-14.6094267043971
 21
25.02631318023171
 31
0.0
  0
LINE
  5
383
330
1F
100
AcDbEntity
  8
0
100
AcDbLine
 10
-14.6094267043971
 20
25.02631318023171
 30
0.0
 11
-14.70711131563384
 21
25.03593426983721
 31
0.0
  0
LINE
  5
384
330
1F
100
AcDbEntity
  8
0
100
AcDbLine
 10
-14.70711131563384
 20
25.03593426983721
 30
0.0
 11
-14.80521602599333
 21
25.03914588048481
 31
0.0
  0
LINE
  5
385
330
1F
100
AcDbEntity
  8
0
100
AcDbLine
 10
-14.80521602599333
 20
25.03914588048481
 30
0.0
 11
-18.66521654745351
 21
25.03914568048482
 31
0.0
  0
LINE
  5
386
330
1F
100
AcDbEntity
  8
0
100
AcDbLine
 10
-18.66521654745351
 20
25.03914568048482
 30
0.0
 11
-20.46521654745351
 21
23.23914568048481
 31
0.0
  0
LINE
  5
387
330
1F
100
AcDbEntity
  8
0
100
AcDbLine
 10
-20.46521654745351
 20
23.23914568048481
 30
0.0
 11
-17.80587514745351
 21
23.23914568048481
 31
0.0
  0
LINE
  5
388
330
1F
100
AcDbEntity
  8
0
100
AcDbLine
 10
-17.80587514745351
 20
21.59914328048481
 30
0.0
 11
-20.11233874745351
 21
19.29267948048481
 31
0.0
  0
LINE
  5
389
330
1F
100
AcDbEntity
  8
0
100
AcDbLine
 10
-23.10521594745351
 20
18.93980488048481
 30
0.0
 11
-20.46521654745351
 21
18.93980488048481
 31
0.0
  0
LINE
  5
38A
330
1F
100
AcDbEntity
  8
0
100
AcDbLine
 10
-23.10521594745351
 20
18.93980488048481
 30
0.0
 11
-23.3052159474535
 21
18.7398048804848
 31
0.0
  0
LINE
  5
38B
330
1F
100
AcDbEntity
  8
0
100
AcDbLine
 10
-23.50521594745351
 20
18.93980488048481
 30
0.0
 11
-23.3052159474535
 21
18.7398048804848
 31
0.0
  0
LINE
  5
38C
330
1F
100
AcDbEntity
  8
0
100
AcDbLine
 10
-23.50521594745351
 20
18.93980488048481
 30
0.0
 11
-26.14521694745351
 21
18.93980488048481
 31
0.0
  0
LINE
  5
38D
330
1F
100
AcDbEntity
  8
0
100
AcDbLine
 10
-28.80455674745351
 20
21.59914328048481
 30
0.0
 11
-26.14521694745351
 21
18.93980488048481
 31
0.0
  0
LINE
  5
38E
330
1F
100
AcDbEntity
  8
0
100
AcDbLine
 10
-26.14521694745351
 20
23.23914568048481
 30
0.0
 11
-28.40455674745351
 21
23.23914568048481
 31
0.0
  0
LINE
  5
38F
330
1F
100
AcDbEntity
  8
0
100
AcDbLine
 10
-27.94521694745351
 20
25.03914568048482
 30
0.0
 11
-26.14521694745351
 21
23.23914568048481
 31
0.0
  0
LINE
  5
390
330
1F
100
AcDbEntity
  8
0
100
AcDbLine
 10
-31.80521762599334
 20
25.0391458804848
 30
0.0
 11
-27.94521694745351
 21
25.03914568048482
 31
0.0
  0
LINE
  5
391
330
1F
100
AcDbEntity
  8
0
100
AcDbLine
 10
-21.2052157474535
 20
15.03914408048481
 30
0.0
 11
-21.20971200908065
 21
15.17649066494874
 31
0.0
  0
LINE
  5
392
330
1F
100
AcDbEntity
  8
0
100
AcDbLine
 10
-21.20971200908065
 20
15.17649066494874
 30
0.0
 11
-21.22318154027953
 21
15.31324911025216
 31
0.0
  0
LINE
  5
393
330
1F
100
AcDbEntity
  8
0
100
AcDbLine
 10
-21.22318154027953
 20
15.31324911025216
 30
0.0
 11
-21.24556666244966
 21
15.44883379573674
 31
0.0
  0
LINE
  5
394
330
1F
100
AcDbEntity
  8
0
100
AcDbLine
 10
-21.24556666244966
 20
15.44883379573674
 30
0.0
 11
-21.27677151906129
 21
15.58266412696391
 31
0.0
  0
LINE
  5
395
330
1F
100
AcDbEntity
  8
0
100
AcDbLine
 10
-21.27677151906129
 20
15.58266412696391
 30
0.0
 11
-21.31666248612775
 21
15.71416702190934
 31
0.0
  0
LINE
  5
396
330
1F
100
AcDbEntity
  8
0
100
AcDbLine
 10
-21.31666248612775
 20
15.71416702190934
 30
0.0
 11
-21.36506874440389
 21
15.84277936498818
 31
0.0
  0
LINE
  5
397
330
1F
100
AcDbEntity
  8
0
100
AcDbLine
 10
-21.36506874440389
 20
15.84277936498818
 30
0.0
 11
-21.42178301086031
 21
15.96795041840245
 31
0.0
  0
LINE
  5
398
330
1F
100
AcDbEntity
  8
0
100
AcDbLine
 10
-21.42178301086031
 20
15.96795041840245
 30
0.0
 11
-21.4865624263011
 21
16.08914418048481
 31
0.0
  0
LINE
  5
399
330
1F
100
AcDbEntity
  8
0
100
AcDbLine
 10
-21.4865624263011
 20
16.08914418048481
 30
0.0
 11
-21.55059854745351
 21
16.19297408048481
 31
0.0
  0
LINE
  5
39A
330
1F
100
AcDbEntity
  8
0
100
AcDbLine
 10
-21.55059854745351
 20
16.19297408048481
 30
0.0
 11
-21.63917377417124
 21
16.31754320315541
 31
0.0
  0
LINE
  5
39B
330
1F
100
AcDbEntity
  8
0
100
AcDbLine
 10
-21.63917377417124
 20
16.31754320315541
 30
0.0
 11
-21.72635220137969
 21
16.42377042406412
 31
0.0
  0
LINE
  5
39C
330
1F
100
AcDbEntity
  8
0
100
AcDbLine
 10
-21.72635220137969
 20
16.42377042406412
 30
0.0
 11
-21.8202915655404
 21
16.52406846239792
 31
0.0
  0
LINE
  5
39D
330
1F
100
AcDbEntity
  8
0
100
AcDbLine
 10
-21.8202915655404
 20
16.52406846239792
 30
0.0
 11
-21.92058960387419
 21
16.61800782655862
 31
0.0
  0
LINE
  5
39E
330
1F
100
AcDbEntity
  8
0
100
AcDbLine
 10
-21.92058960387419
 20
16.61800782655862
 30
0.0
 11
-22.0268168247829
 21
16.70518625376707
 31
0.0
  0
LINE
  5
39F
330
1F
100
AcDbEntity
  8
0
100
AcDbLine
 10
-22.0268168247829
 20
16.70518625376707
 30
0.0
 11
-22.13851834699829
 21
16.78523043261407
 31
0.0
  0
LINE
  5
3A0
330
1F
100
AcDbEntity
  8
0
100
AcDbLine
 10
-22.13851834699829
 20
16.78523043261407
 30
0.0
 11
-22.2552158474535
 21
16.85779760163721
 31
0.0
  0
LINE
  5
3A1
330
1F
100
AcDbEntity
  8
0
100
AcDbLine
 10
-22.2552158474535
 20
16.85779760163721
 30
0.0
 11
-22.37640960953586
 21
16.922577017078
 31
0.0
  0
LINE
  5
3A2
330
1F
100
AcDbEntity
  8
0
100
AcDbLine
 10
-22.37640960953586
 20
16.922577017078
 30
0.0
 11
-22.50158066295013
 21
16.97929128353442
 31
0.0
  0
LINE
  5
3A3
330
1F
100
AcDbEntity
  8
0
100
AcDbLine
 10
-22.50158066295013
 20
16.97929128353442
 30
0.0
 11
-22.63019300602897
 21
17.02769754181056
 31
0.0
  0
LINE
  5
3A4
330
1F
100
AcDbEntity
  8
0
100
AcDbLine
 10
-22.63019300602897
 20
17.02769754181056
 30
0.0
 11
-22.7616959009744
 21
17.06758850887702
 31
0.0
  0
LINE
  5
3A5
330
1F
100
AcDbEntity
  8
0
100
AcDbLine
 10
-22.7616959009744
 20
17.06758850887702
 30
0.0
 11
-22.89552623220156
 21
17.09879336548865
 31
0.0
  0
LINE
  5
3A6
330
1F
100
AcDbEntity
  8
0
100
AcDbLine
 10
-22.89552623220156
 20
17.09879336548865
 30
0.0
 11
-23.03111091768615
 21
17.12117848765878
 31
0.0
  0
LINE
  5
3A7
330
1F
100
AcDbEntity
  8
0
100
AcDbLine
 10
-23.03111091768615
 20
17.12117848765878
 30
0.0
 11
-23.16786936298957
 21
17.13464801885766
 31
0.0
  0
LINE
  5
3A8
330
1F
100
AcDbEntity
  8
0
100
AcDbLine
 10
-23.16786936298957
 20
17.13464801885766
 30
0.0
 11
-23.3052159474535
 21
17.13914428048481
 31
0.0
  0
LINE
  5
3A9
330
1F
100
AcDbEntity
  8
0
100
AcDbLine
 10
-23.3052159474535
 20
17.13914428048481
 30
0.0
 11
-23.44256253191742
 21
17.13464801885766
 31
0.0
  0
LINE
  5
3AA
330
1F
100
AcDbEntity
  8
0
100
AcDbLine
 10
-23.44256253191742
 20
17.13464801885766
 30
0.0
 11
-23.57932097722085
 21
17.12117848765878
 31
0.0
  0
LINE
  5
3AB
330
1F
100
AcDbEntity
  8
0
100
AcDbLine
 10
-23.57932097722085
 20
17.12117848765878
 30
0.0
 11
-23.71490566270543
 21
17.09879336548865
 31
0.0
  0
LINE
  5
3AC
330
1F
100
AcDbEntity
  8
0
100
AcDbLine
 10
-23.71490566270543
 20
17.09879336548865
 30
0.0
 11
-23.8487359939326
 21
17.06758850887702
 31
0.0
  0
LINE
  5
3AD
330
1F
100
AcDbEntity
  8
0
100
AcDbLine
 10
-23.8487359939326
 20
17.06758850887702
 30
0.0
 11
-23.98023888887803
 21
17.02769754181056
 31
0.0
  0
LINE
  5
3AE
330
1F
100
AcDbEntity
  8
0
100
AcDbLine
 10
-23.98023888887803
 20
17.02769754181056
 30
0.0
 11
-24.10885123195688
 21
16.97929128353442
 31
0.0
  0
LINE
  5
3AF
330
1F
100
AcDbEntity
  8
0
100
AcDbLine
 10
-24.10885123195688
 20
16.97929128353442
 30
0.0
 11
-24.23402228537114
 21
16.922577017078
 31
0.0
  0
LINE
  5
3B0
330
1F
100
AcDbEntity
  8
0
100
AcDbLine
 10
-24.23402228537114
 20
16.922577017078
 30
0.0
 11
-24.3552160474535
 21
16.85779760163721
 31
0.0
  0
LINE
  5
3B1
330
1F
100
AcDbEntity
  8
0
100
AcDbLine
 10
-24.3552160474535
 20
16.85779760163721
 30
0.0
 11
-24.47191354790871
 21
16.78523043261408
 31
0.0
  0
LINE
  5
3B2
330
1F
100
AcDbEntity
  8
0
100
AcDbLine
 10
-24.47191354790871
 20
16.78523043261408
 30
0.0
 11
-24.5836150701241
 21
16.70518625376707
 31
0.0
  0
LINE
  5
3B3
330
1F
100
AcDbEntity
  8
0
100
AcDbLine
 10
-24.5836150701241
 20
16.70518625376707
 30
0.0
 11
-24.68984229103281
 21
16.61800782655862
 31
0.0
  0
LINE
  5
3B4
330
1F
100
AcDbEntity
  8
0
100
AcDbLine
 10
-24.68984229103281
 20
16.61800782655862
 30
0.0
 11
-24.7901403293666
 21
16.52406846239792
 31
0.0
  0
LINE
  5
3B5
330
1F
100
AcDbEntity
  8
0
100
AcDbLine
 10
-24.7901403293666
 20
16.52406846239792
 30
0.0
 11
-24.88407969352731
 21
16.42377042406412
 31
0.0
  0
LINE
  5
3B6
330
1F
100
AcDbEntity
  8
0
100
AcDbLine
 10
-24.88407969352731
 20
16.42377042406412
 30
0.0
 11
-24.97125812073576
 21
16.31754320315541
 31
0.0
  0
LINE
  5
3B7
330
1F
100
AcDbEntity
  8
0
100
AcDbLine
 10
-24.97125812073576
 20
16.31754320315541
 30
0.0
 11
-25.05130229958277
 21
16.20584168094003
 31
0.0
  0
LINE
  5
3B8
330
1F
100
AcDbEntity
  8
0
100
AcDbLine
 10
-25.05130229958277
 20
16.20584168094003
 30
0.0
 11
-25.1238694686059
 21
16.08914418048481
 31
0.0
  0
LINE
  5
3B9
330
1F
100
AcDbEntity
  8
0
100
AcDbLine
 10
-25.1238694686059
 20
16.08914418048481
 30
0.0
 11
-25.18864888404669
 21
15.96795041840245
 31
0.0
  0
LINE
  5
3BA
330
1F
100
AcDbEntity
  8
0
100
AcDbLine
 10
-25.18864888404669
 20
15.96795041840245
 30
0.0
 11
-25.24536315050311
 21
15.84277936498819
 31
0.0
  0
LINE
  5
3BB
330
1F
100
AcDbEntity
  8
0
100
AcDbLine
 10
-25.24536315050311
 20
15.84277936498819
 30
0.0
 11
-25.29376940877924
 21
15.71416702190935
 31
0.0
  0
LINE
  5
3BC
330
1F
100
AcDbEntity
  8
0
100
AcDbLine
 10
-25.29376940877924
 20
15.71416702190935
 30
0.0
 11
-25.33366037584571
 21
15.58266412696391
 31
0.0
  0
LINE
  5
3BD
330
1F
100
AcDbEntity
  8
0
100
AcDbLine
 10
-25.33366037584571
 20
15.58266412696391
 30
0.0
 11
-25.36486523245734
 21
15.44883379573675
 31
0.0
  0
LINE
  5
3BE
330
1F
100
AcDbEntity
  8
0
100
AcDbLine
 10
-25.36486523245734
 20
15.44883379573675
 30
0.0
 11
-25.38725035462748
 21
15.31324911025216
 31
0.0
  0
LINE
  5
3BF
330
1F
100
AcDbEntity
  8
0
100
AcDbLine
 10
-25.38725035462748
 20
15.31324911025216
 30
0.0
 11
-25.40071988582635
 21
15.17649066494874
 31
0.0
  0
LINE
  5
3C0
330
1F
100
AcDbEntity
  8
0
100
AcDbLine
 10
-25.40071988582635
 20
15.17649066494874
 30
0.0
 11
-25.4052161474535
 21
15.03914408048481
 31
0.0
  0
LINE
  5
3C1
330
1F
100
AcDbEntity
  8
0
100
AcDbLine
 10
-25.4052161474535
 20
15.03914408048481
 30
0.0
 11
-25.40071988582635
 21
14.90179749602089
 31
0.0
  0
LINE
  5
3C2
330
1F
100
AcDbEntity
  8
0
100
AcDbLine
 10
-25.40071988582635
 20
14.90179749602089
 30
0.0
 11
-25.38725035462748
 21
14.76503905071747
 31
0.0
  0
LINE
  5
3C3
330
1F
100
AcDbEntity
  8
0
100
AcDbLine
 10
-25.38725035462748
 20
14.76503905071747
 30
0.0
 11
-25.36486523245734
 21
14.62945436523288
 31
0.0
  0
LINE
  5
3C4
330
1F
100
AcDbEntity
  8
0
100
AcDbLine
 10
-25.36486523245734
 20
14.62945436523288
 30
0.0
 11
-25.33366037584571
 21
14.49562403400571
 31
0.0
  0
LINE
  5
3C5
330
1F
100
AcDbEntity
  8
0
100
AcDbLine
 10
-25.33366037584571
 20
14.49562403400571
 30
0.0
 11
-25.29376940877925
 21
14.36412113906028
 31
0.0
  0
LINE
  5
3C6
330
1F
100
AcDbEntity
  8
0
100
AcDbLine
 10
-25.29376940877925
 20
14.36412113906028
 30
0.0
 11
-25.24536315050311
 21
14.23550879598144
 31
0.0
  0
LINE
  5
3C7
330
1F
100
AcDbEntity
  8
0
100
AcDbLine
 10
-25.24536315050311
 20
14.23550879598144
 30
0.0
 11
-25.1886488840467
 21
14.11033774256718
 31
0.0
  0
LINE
  5
3C8
330
1F
100
AcDbEntity
  8
0
100
AcDbLine
 10
-25.1886488840467
 20
14.11033774256718
 30
0.0
 11
-25.12386946860591
 21
13.98914398048482
 31
0.0
  0
LINE
  5
3C9
330
1F
100
AcDbEntity
  8
0
100
AcDbLine
 10
-25.12386946860591
 20
13.98914398048482
 30
0.0
 11
-25.05983174745351
 21
13.88531408048481
 31
0.0
  0
LINE
  5
3CA
330
1F
100
AcDbEntity
  8
0
100
AcDbLine
 10
-25.05983174745351
 20
13.88531408048481
 30
0.0
 11
-24.97125812073577
 21
13.76074495781421
 31
0.0
  0
LINE
  5
3CB
330
1F
100
AcDbEntity
  8
0
100
AcDbLine
 10
-24.97125812073577
 20
13.76074495781421
 30
0.0
 11
-24.88407969352732
 21
13.6545177369055
 31
0.0
  0
LINE
  5
3CC
330
1F
100
AcDbEntity
  8
0
100
AcDbLine
 10
-24.88407969352732
 20
13.6545177369055
 30
0.0
 11
-24.79014032936661
 21
13.55421969857171
 31
0.0
  0
LINE
  5
3CD
330
1F
100
AcDbEntity
  8
0
100
AcDbLine
 10
-24.79014032936661
 20
13.55421969857171
 30
0.0
 11
-24.68984229103281
 21
13.460280334411
 31
0.0
  0
LINE
  5
3CE
330
1F
100
AcDbEntity
  8
0
100
AcDbLine
 10
-24.68984229103281
 20
13.460280334411
 30
0.0
 11
-24.58361507012411
 21
13.37310190720255
 31
0.0
  0
LINE
  5
3CF
330
1F
100
AcDbEntity
  8
0
100
AcDbLine
 10
-24.58361507012411
 20
13.37310190720255
 30
0.0
 11
-24.47191354790872
 21
13.29305772835555
 31
0.0
  0
LINE
  5
3D0
330
1F
100
AcDbEntity
  8
0
100
AcDbLine
 10
-24.47191354790872
 20
13.29305772835555
 30
0.0
 11
-24.3552160474535
 21
13.22049055933241
 31
0.0
  0
LINE
  5
3D1
330
1F
100
AcDbEntity
  8
0
100
AcDbLine
 10
-24.3552160474535
 20
13.22049055933241
 30
0.0
 11
-24.23402228537114
 21
13.15571114389162
 31
0.0
  0
LINE
  5
3D2
330
1F
100
AcDbEntity
  8
0
100
AcDbLine
 10
-24.23402228537114
 20
13.15571114389162
 30
0.0
 11
-24.10885123195688
 21
13.0989968774352
 31
0.0
  0
LINE
  5
3D3
330
1F
100
AcDbEntity
  8
0
100
AcDbLine
 10
-24.10885123195688
 20
13.0989968774352
 30
0.0
 11
-23.98023888887804
 21
13.05059061915906
 31
0.0
  0
LINE
  5
3D4
330
1F
100
AcDbEntity
  8
0
100
AcDbLine
 10
-23.98023888887804
 20
13.05059061915906
 30
0.0
 11
-23.84873599393261
 21
13.0106996520926
 31
0.0
  0
LINE
  5
3D5
330
1F
100
AcDbEntity
  8
0
100
AcDbLine
 10
-23.84873599393261
 20
13.0106996520926
 30
0.0
 11
-23.71490566270543
 21
12.97949479548097
 31
0.0
  0
LINE
  5
3D6
330
1F
100
AcDbEntity
  8
0
100
AcDbLine
 10
-23.71490566270543
 20
12.97949479548097
 30
0.0
 11
-23.57932097722085
 21
12.95710967331083
 31
0.0
  0
LINE
  5
3D7
330
1F
100
AcDbEntity
  8
0
100
AcDbLine
 10
-23.57932097722085
 20
12.95710967331083
 30
0.0
 11
-23.44256253191743
 21
12.94364014211196
 31
0.0
  0
LINE
  5
3D8
330
1F
100
AcDbEntity
  8
0
100
AcDbLine
 10
-23.44256253191743
 20
12.94364014211196
 30
0.0
 11
-23.3052159474535
 21
12.93914388048481
 31
0.0
  0
LINE
  5
3D9
330
1F
100
AcDbEntity
  8
0
100
AcDbLine
 10
-23.3052159474535
 20
12.93914388048481
 30
0.0
 11
-23.16786936298957
 21
12.94364014211196
 31
0.0
  0
LINE
  5
3DA
330
1F
100
AcDbEntity
  8
0
100
AcDbLine
 10
-23.16786936298957
 20
12.94364014211196
 30
0.0
 11
-23.03111091768615
 21
12.95710967331083
 31
0.0
  0
LINE
  5
3DB
330
1F
100
AcDbEntity
  8
0
100
AcDbLine
 10
-23.03111091768615
 20
12.95710967331083
 30
0.0
 11
-22.89552623220156
 21
12.97949479548097
 31
0.0
  0
LINE
  5
3DC
330
1F
100
AcDbEntity
  8
0
100
AcDbLine
 10
-22.89552623220156
 20
12.97949479548097
 30
0.0
 11
-22.7616959009744
 21
13.0106996520926
 31
0.0
  0
LINE
  5
3DD
330
1F
100
AcDbEntity
  8
0
100
AcDbLine
 10
-22.7616959009744
 20
13.0106996520926
 30
0.0
 11
-22.63019300602896
 21
13.05059061915906
 31
0.0
  0
LINE
  5
3DE
330
1F
100
AcDbEntity
  8
0
100
AcDbLine
 10
-22.63019300602896
 20
13.05059061915906
 30
0.0
 11
-22.50158066295012
 21
13.0989968774352
 31
0.0
  0
LINE
  5
3DF
330
1F
100
AcDbEntity
  8
0
100
AcDbLine
 10
-22.50158066295012
 20
13.0989968774352
 30
0.0
 11
-22.37640960953585
 21
13.15571114389162
 31
0.0
  0
LINE
  5
3E0
330
1F
100
AcDbEntity
  8
0
100
AcDbLine
 10
-22.37640960953585
 20
13.15571114389162
 30
0.0
 11
-22.25521584745349
 21
13.22049055933241
 31
0.0
  0
LINE
  5
3E1
330
1F
100
AcDbEntity
  8
0
100
AcDbLine
 10
-22.25521584745349
 20
13.22049055933241
 30
0.0
 11
-22.13851834699828
 21
13.29305772835555
 31
0.0
  0
LINE
  5
3E2
330
1F
100
AcDbEntity
  8
0
100
AcDbLine
 10
-22.13851834699828
 20
13.29305772835555
 30
0.0
 11
-22.02681682478289
 21
13.37310190720255
 31
0.0
  0
LINE
  5
3E3
330
1F
100
AcDbEntity
  8
0
100
AcDbLine
 10
-22.02681682478289
 20
13.37310190720255
 30
0.0
 11
-21.92058960387418
 21
13.460280334411
 31
0.0
  0
LINE
  5
3E4
330
1F
100
AcDbEntity
  8
0
100
AcDbLine
 10
-21.92058960387418
 20
13.460280334411
 30
0.0
 11
-21.82029156554039
 21
13.55421969857171
 31
0.0
  0
LINE
  5
3E5
330
1F
100
AcDbEntity
  8
0
100
AcDbLine
 10
-21.82029156554039
 20
13.55421969857171
 30
0.0
 11
-21.72635220137968
 21
13.65451773690551
 31
0.0
  0
LINE
  5
3E6
330
1F
100
AcDbEntity
  8
0
100
AcDbLine
 10
-21.72635220137968
 20
13.65451773690551
 30
0.0
 11
-21.63917377417123
 21
13.76074495781422
 31
0.0
  0
LINE
  5
3E7
330
1F
100
AcDbEntity
  8
0
100
AcDbLine
 10
-21.63917377417123
 20
13.76074495781422
 30
0.0
 11
-21.55912959532423
 21
13.87244648002961
 31
0.0
  0
LINE
  5
3E8
330
1F
100
AcDbEntity
  8
0
100
AcDbLine
 10
-21.55912959532423
 20
13.87244648002961
 30
0.0
 11
-21.4865624263011
 21
13.98914398048482
 31
0.0
  0
LINE
  5
3E9
330
1F
100
AcDbEntity
  8
0
100
AcDbLine
 10
-21.4865624263011
 20
13.98914398048482
 30
0.0
 11
-21.4217830108603
 21
14.11033774256718
 31
0.0
  0
LINE
  5
3EA
330
1F
100
AcDbEntity
  8
0
100
AcDbLine
 10
-21.4217830108603
 20
14.11033774256718
 30
0.0
 11
-21.36506874440389
 21
14.23550879598145
 31
0.0
  0
LINE
  5
3EB
330
1F
100
AcDbEntity
  8
0
100
AcDbLine
 10
-21.36506874440389
 20
14.23550879598145
 30
0.0
 11
-21.31666248612775
 21
14.36412113906029
 31
0.0
  0
LINE
  5
3EC
330
1F
100
AcDbEntity
  8
0
100
AcDbLine
 10
-21.31666248612775
 20
14.36412113906029
 30
0.0
 11
-21.27677151906128
 21
14.49562403400573
 31
0.0
  0
LINE
  5
3ED
330
1F
100
AcDbEntity
  8
0
100
AcDbLine
 10
-21.27677151906128
 20
14.49562403400573
 30
0.0
 11
-21.24556666244965
 21
14.62945436523289
 31
0.0
  0
LINE
  5
3EE
330
1F
100
AcDbEntity
  8
0
100
AcDbLine
 10
-21.24556666244965
 20
14.62945436523289
 30
0.0
 11
-21.22318154027953
 21
14.76503905071748
 31
0.0
  0
LINE
  5
3EF
330
1F
100
AcDbEntity
  8
0
100
AcDbLine
 10
-21.22318154027953
 20
14.76503905071748
 30
0.0
 11
-21.20971200908065
 21
14.9017974960209
 31
0.0
  0
LINE
  5
3F0
330
1F
100
AcDbEntity
  8
0
100
AcDbLine
 10
-21.20971200908065
 20
14.9017974960209
 30
0.0
 11
-21.2052157474535
 21
15.03914408048481
 31
0.0
  0
LINE
  5
3F1
330
1F
100
AcDbEntity
  8
0
100
AcDbLine
 10
-24.93455394745351
 20
15.01892468048481
 30
0.0
 11
-25.4052161474535
 21
15.03914408048481
 31
0.0
  0
LINE
  5
3F2
330
1F
100
AcDbEntity
  8
0
100
AcDbLine
 10
-21.2052157474535
 20
15.03914408048481
 30
0.0
 11
-24.42337694745351
 21
15.00599288048481
 31
0.0
  0
LINE
  5
3F3
330
1F
100
AcDbEntity
  8
0
100
AcDbLine
 10
-23.3052159474535
 20
12.93914388048481
 30
0.0
 11
-23.3052159474535
 21
12.30914388048481
 31
0.0
  0
LINE
  5
3F4
330
1F
100
AcDbEntity
  8
0
100
AcDbLine
 10
-23.2851353474535
 20
15.53108588048481
 30
0.0
 11
-23.3052159474535
 21
12.93914388048481
 31
0.0
  0
LINE
  5
3F5
330
1F
100
AcDbEntity
  8
0
100
AcDbLine
 10
-23.3052159474535
 20
17.13914428048481
 30
0.0
 11
-23.2851353474535
 21
15.53108588048481
 31
0.0
  0
LINE
  5
3F6
330
1F
100
AcDbEntity
  8
0
100
AcDbLine
 10
-23.61490534745351
 20
21.59914328048481
 30
0.0
 11
-23.21490534745351
 21
21.59914328048481
 31
0.0
  0
LINE
  5
3F7
330
1F
100
AcDbEntity
  8
0
100
AcDbLine
 10
-26.14521694745351
 20
23.23914568048481
 30
0.0
 11
-23.61490534745351
 21
23.23914568048481
 31
0.0
  0
LINE
  5
3F8
330
1F
100
AcDbEntity
  8
0
100
AcDbLine
 10
-23.61490534745351
 20
23.23914568048481
 30
0.0
 11
-23.61490534745351
 21
27.08796468048481
 31
0.0
  0
LINE
  5
3F9
330
1F
100
AcDbEntity
  8
0
100
AcDbLine
 10
-24.60270734745351
 20
14.79032508048481
 30
0.0
 11
-24.80036054745351
 21
15.26076428048481
 31
0.0
  0
LINE
  5
3FA
330
1F
100
AcDbEntity
  8
0
100
AcDbLine
 10
-25.05983174745351
 20
13.88531408048481
 30
0.0
 11
-21.55059854745351
 21
16.19297408048481
 31
0.0
  0
LINE
  5
3FB
330
1F
100
AcDbEntity
  8
0
100
AcDbLine
 10
-33.18103465277056
 20
-20.46306730391436
 30
0.0
 11
-33.18103465277056
 21
-20.86306730391435
 31
0.0
  0
LINE
  5
3FC
330
1F
100
AcDbEntity
  8
0
100
AcDbLine
 10
-13.18103305277056
 20
-20.46306730391436
 30
0.0
 11
-13.18103305277056
 21
-20.86306730391435
 31
0.0
  0
LINE
  5
3FD
330
1F
100
AcDbEntity
  8
0
100
AcDbLine
 10
-6.261334747453508
 20
-15.03189912803997
 30
0.0
 11
-5.861334747453503
 21
-15.03189912803997
 31
0.0
  0
LINE
  5
3FE
330
1F
100
AcDbEntity
  8
0
100
AcDbLine
 10
-6.261334747453508
 20
25.03914568048477
 30
0.0
 11
-5.861334747453503
 21
25.03914568048482
 31
0.0
  0
LINE
  5
3FF
330
1F
100
AcDbEntity
  8
0
100
AcDbLine
 10
-28.35447274745351
 20
12.19914328048481
 30
0.0
 11
-28.75447274745351
 21
12.19914328048481
 31
0.0
  0
LINE
  5
400
330
1F
100
AcDbEntity
  8
0
100
AcDbLine
 10
-28.35447274745351
 20
17.87914508048481
 30
0.0
 11
-28.75447274745351
 21
17.87914508048481
 31
0.0
  0
LINE
  5
401
330
1F
100
AcDbEntity
  8
0
100
AcDbLine
 10
-28.44417245277055
 20
-15.78160070391436
 30
0.0
 11
-28.72701385277055
 21
-16.06444370391435
 31
0.0
  0
LINE
  5
402
330
1F
100
AcDbEntity
  8
0
100
AcDbLine
 10
-17.91789525277057
 20
-15.78160070391436
 30
0.0
 11
-17.63505225277055
 21
-16.06444370391435
 31
0.0
  0
LINE
  5
403
330
1F
100
AcDbEntity
  8
0
100
AcDbLine
 10
-15.10521594745351
 20
17.25158908048481
 30
0.0
 11
-15.10521594745351
 21
16.85158908048481
 31
0.0
  0
LINE
  5
404
330
1F
100
AcDbEntity
  8
0
100
AcDbLine
 10
-13.3052159474535
 20
17.25158908048481
 30
0.0
 11
-13.3052159474535
 21
16.85158908048481
 31
0.0
  0
LINE
  5
405
330
1F
100
AcDbEntity
  8
0
100
AcDbLine
 10
-13.3052159474535
 20
17.25158908048481
 30
0.0
 11
-10.54773614745352
 21
17.25158908048481
 31
0.0
  0
LINE
  5
406
330
1F
100
AcDbEntity
  8
0
100
AcDbLine
 10
-19.05167894745351
 20
18.23201968048481
 30
0.0
 11
-17.32821694745351
 21
16.50855628048481
 31
0.0
  0
LINE
  5
407
330
1F
100
AcDbEntity
  8
0
100
AcDbLine
 10
-19.05167894745351
 20
18.23201968048481
 30
0.0
 11
-19.40455674745351
 21
17.87914508048481
 31
0.0
  0
LINE
  5
408
330
1F
100
AcDbEntity
  8
0
100
AcDbLine
 10
-20.11233874745351
 20
19.29267948048481
 30
0.0
 11
-20.46521654745351
 21
18.93980488048481
 31
0.0
  0
LINE
  5
409
330
1F
100
AcDbEntity
  8
0
100
AcDbLine
 10
-28.40455674745351
 20
23.23914568048481
 30
0.0
 11
-28.80455674745351
 21
23.23914568048481
 31
0.0
  0
LINE
  5
40A
330
1F
100
AcDbEntity
  8
0
100
AcDbLine
 10
-25.4052161474535
 20
15.03914408048481
 30
0.0
 11
-26.03521614745351
 21
15.03914408048481
 31
0.0
  0
LINE
  5
40B
330
1F
100
AcDbEntity
  8
0
100
AcDbLine
 10
-24.42337694745351
 20
15.00599288048481
 30
0.0
 11
-24.93455394745351
 21
15.01892468048481
 31
0.0
  0
LINE
  5
40C
330
1F
100
AcDbEntity
  8
0
100
AcDbLine
 10
-23.61490534745351
 20
23.23914568048481
 30
0.0
 11
-23.21490534745351
 21
23.23914568048481
 31
0.0
  0
LINE
  5
40D
330
1F
100
AcDbEntity
  8
0
100
AcDbLine
 10
-24.80036054745351
 20
15.26076428048481
 30
0.0
 11
-24.81265154745351
 21
15.36438828048481
 31
0.0
  0
LINE
  5
40E
330
1F
100
AcDbEntity
  8
0
100
AcDbLine
 10
-21.55059854745351
 20
16.19297408048481
 30
0.0
 11
-20.71506694745351
 21
16.74241568048481
 31
0.0
  0
LINE
  5
40F
330
1F
100
AcDbEntity
  8
0
100
AcDbLine
 10
-16.74521534745351
 20
20.53848348048481
 30
0.0
 11
-16.63932348798477
 21
20.65474625249137
 31
0.0
  0
LINE
  5
410
330
1F
100
AcDbEntity
  8
0
100
AcDbLine
 10
-16.63932348798477
 20
20.65474625249137
 30
0.0
 11
-16.51711966147284
 21
20.75372272869779
 31
0.0
  0
LINE
  5
411
330
1F
100
AcDbEntity
  8
0
100
AcDbLine
 10
-16.51711966147284
 20
20.75372272869779
 30
0.0
 11
-16.38139530175653
 21
20.83315204467115
 31
0.0
  0
LINE
  5
412
330
1F
100
AcDbEntity
  8
0
100
AcDbLine
 10
-16.38139530175653
 20
20.83315204467115
 30
0.0
 11
-16.23525068467233
 21
20.89121984085552
 31
0.0
  0
LINE
  5
413
330
1F
100
AcDbEntity
  8
0
100
AcDbLine
 10
-16.23525068467233
 20
20.89121984085552
 30
0.0
 11
-16.08202411018295
 21
20.92659970697523
 31
0.0
  0
LINE
  5
414
330
1F
100
AcDbEntity
  8
0
100
AcDbLine
 10
-16.08202411018295
 20
20.92659970697523
 30
0.0
 11
-15.92521564745351
 21
20.93848348048481
 31
0.0
  0
LINE
  5
415
330
1F
100
AcDbEntity
  8
0
100
AcDbLine
 10
-15.92521564745351
 20
20.93848348048481
 30
0.0
 11
-15.76840718472407
 21
20.92659970697523
 31
0.0
  0
LINE
  5
416
330
1F
100
AcDbEntity
  8
0
100
AcDbLine
 10
-15.76840718472407
 20
20.92659970697523
 30
0.0
 11
-15.61518061023469
 21
20.89121984085552
 31
0.0
  0
LINE
  5
417
330
1F
100
AcDbEntity
  8
0
100
AcDbLine
 10
-15.61518061023469
 20
20.89121984085552
 30
0.0
 11
-15.46903599315049
 21
20.83315204467115
 31
0.0
  0
LINE
  5
418
330
1F
100
AcDbEntity
  8
0
100
AcDbLine
 10
-15.46903599315049
 20
20.83315204467115
 30
0.0
 11
-15.33331163343418
 21
20.75372272869779
 31
0.0
  0
LINE
  5
419
330
1F
100
AcDbEntity
  8
0
100
AcDbLine
 10
-15.33331163343418
 20
20.75372272869779
 30
0.0
 11
-15.21110780692225
 21
20.65474625249137
 31
0.0
  0
LINE
  5
41A
330
1F
100
AcDbEntity
  8
0
100
AcDbLine
 10
-15.21110780692225
 20
20.65474625249137
 30
0.0
 11
-15.10521594745351
 21
20.53848348048481
 31
0.0
  0
LINE
  5
41B
330
1F
100
AcDbEntity
  8
0
100
AcDbLine
 10
-17.80587514745351
 20
21.59914328048481
 30
0.0
 11
-17.68961235608789
 21
21.70503543867635
 31
0.0
  0
LINE
  5
41C
330
1F
100
AcDbEntity
  8
0
100
AcDbLine
 10
-17.68961235608789
 20
21.70503543867635
 30
0.0
 11
-17.59063587640068
 21
21.82723953963585
 31
0.0
  0
LINE
  5
41D
330
1F
100
AcDbEntity
  8
0
100
AcDbLine
 10
-17.59063587640068
 20
21.82723953963585
 30
0.0
 11
-17.51120656573651
 21
21.96296415210539
 31
0.0
  0
LINE
  5
41E
330
1F
100
AcDbEntity
  8
0
100
AcDbLine
 10
-17.51120656573651
 20
21.96296415210539
 30
0.0
 11
-17.45313877777779
 21
22.10910900430406
 31
0.0
  0
LINE
  5
41F
330
1F
100
AcDbEntity
  8
0
100
AcDbLine
 10
-17.45313877777779
 20
22.10910900430406
 30
0.0
 11
-17.41775891840709
 21
22.26233580148229
 31
0.0
  0
LINE
  5
420
330
1F
100
AcDbEntity
  8
0
100
AcDbLine
 10
-17.41775891840709
 20
22.26233580148229
 30
0.0
 11
-17.40587514745351
 21
22.41914448048481
 31
0.0
  0
LINE
  5
421
330
1F
100
AcDbEntity
  8
0
100
AcDbLine
 10
-17.40587514745351
 20
22.41914448048481
 30
0.0
 11
-17.41775891840709
 21
22.57595315948732
 31
0.0
  0
LINE
  5
422
330
1F
100
AcDbEntity
  8
0
100
AcDbLine
 10
-17.41775891840709
 20
22.57595315948732
 30
0.0
 11
-17.45313877777779
 21
22.72917995666556
 31
0.0
  0
LINE
  5
423
330
1F
100
AcDbEntity
  8
0
100
AcDbLine
 10
-17.45313877777779
 20
22.72917995666556
 30
0.0
 11
-17.51120656573651
 21
22.87532480886423
 31
0.0
  0
LINE
  5
424
330
1F
100
AcDbEntity
  8
0
100
AcDbLine
 10
-17.51120656573651
 20
22.87532480886423
 30
0.0
 11
-17.59063587640068
 21
23.01104942133377
 31
0.0
  0
LINE
  5
425
330
1F
100
AcDbEntity
  8
0
100
AcDbLine
 10
-17.59063587640068
 20
23.01104942133377
 30
0.0
 11
-17.68961235608789
 21
23.13325352229327
 31
0.0
  0
LINE
  5
426
330
1F
100
AcDbEntity
  8
0
100
AcDbLine
 10
-17.68961235608789
 20
23.13325352229327
 30
0.0
 11
-17.80587514745351
 21
23.23914568048481
 31
0.0
  0
LINE
  5
427
330
1F
100
AcDbEntity
  8
0
100
AcDbLine
 10
-28.80455674745351
 20
21.59914328048481
 30
0.0
 11
-28.92081953881913
 21
21.70503543867635
 31
0.0
  0
LINE
  5
428
330
1F
100
AcDbEntity
  8
0
100
AcDbLine
 10
-28.92081953881913
 20
21.70503543867635
 30
0.0
 11
-29.01979601850635
 21
21.82723953963585
 31
0.0
  0
LINE
  5
429
330
1F
100
AcDbEntity
  8
0
100
AcDbLine
 10
-29.01979601850635
 20
21.82723953963585
 30
0.0
 11
-29.09922532917052
 21
21.96296415210539
 31
0.0
  0
LINE
  5
42A
330
1F
100
AcDbEntity
  8
0
100
AcDbLine
 10
-29.09922532917052
 20
21.96296415210539
 30
0.0
 11
-29.15729311712923
 21
22.10910900430406
 31
0.0
  0
LINE
  5
42B
330
1F
100
AcDbEntity
  8
0
100
AcDbLine
 10
-29.15729311712923
 20
22.10910900430406
 30
0.0
 11
-29.19267297649993
 21
22.26233580148229
 31
0.0
  0
LINE
  5
42C
330
1F
100
AcDbEntity
  8
0
100
AcDbLine
 10
-29.19267297649993
 20
22.26233580148229
 30
0.0
 11
-29.20455674745351
 21
22.41914448048481
 31
0.0
  0
LINE
  5
42D
330
1F
100
AcDbEntity
  8
0
100
AcDbLine
 10
-29.20455674745351
 20
22.41914448048481
 30
0.0
 11
-29.19267297649993
 21
22.57595315948732
 31
0.0
  0
LINE
  5
42E
330
1F
100
AcDbEntity
  8
0
100
AcDbLine
 10
-29.19267297649993
 20
22.57595315948732
 30
0.0
 11
-29.15729311712923
 21
22.72917995666556
 31
0.0
  0
LINE
  5
42F
330
1F
100
AcDbEntity
  8
0
100
AcDbLine
 10
-29.15729311712923
 20
22.72917995666556
 30
0.0
 11
-29.09922532917052
 21
22.87532480886423
 31
0.0
  0
LINE
  5
430
330
1F
100
AcDbEntity
  8
0
100
AcDbLine
 10
-29.09922532917052
 20
22.87532480886423
 30
0.0
 11
-29.01979601850635
 21
23.01104942133377
 31
0.0
  0
LINE
  5
431
330
1F
100
AcDbEntity
  8
0
100
AcDbLine
 10
-29.01979601850635
 20
23.01104942133377
 30
0.0
 11
-28.92081953881913
 21
23.13325352229327
 31
0.0
  0
LINE
  5
432
330
1F
100
AcDbEntity
  8
0
100
AcDbLine
 10
-28.92081953881913
 20
23.13325352229327
 30
0.0
 11
-28.80455674745351
 21
23.23914568048481
 31
0.0
  0
LINE
  5
433
330
1F
100
AcDbEntity
  8
0
100
AcDbLine
 10
-29.86521654745351
 20
20.53848348048481
 30
0.0
 11
-29.97110840692225
 21
20.65474625249137
 31
0.0
  0
LINE
  5
434
330
1F
100
AcDbEntity
  8
0
100
AcDbLine
 10
-29.97110840692225
 20
20.65474625249137
 30
0.0
 11
-30.09331223343418
 21
20.75372272869779
 31
0.0
  0
LINE
  5
435
330
1F
100
AcDbEntity
  8
0
100
AcDbLine
 10
-30.09331223343418
 20
20.75372272869779
 30
0.0
 11
-30.22903659315049
 21
20.83315204467115
 31
0.0
  0
LINE
  5
436
330
1F
100
AcDbEntity
  8
0
100
AcDbLine
 10
-30.22903659315049
 20
20.83315204467115
 30
0.0
 11
-30.37518121023469
 21
20.89121984085552
 31
0.0
  0
LINE
  5
437
330
1F
100
AcDbEntity
  8
0
100
AcDbLine
 10
-30.37518121023469
 20
20.89121984085552
 30
0.0
 11
-30.52840778472407
 21
20.92659970697523
 31
0.0
  0
LINE
  5
438
330
1F
100
AcDbEntity
  8
0
100
AcDbLine
 10
-30.52840778472407
 20
20.92659970697523
 30
0.0
 11
-30.68521624745351
 21
20.93848348048481
 31
0.0
  0
LINE
  5
439
330
1F
100
AcDbEntity
  8
0
100
AcDbLine
 10
-30.68521624745351
 20
20.93848348048481
 30
0.0
 11
-30.84202471018296
 21
20.92659970697523
 31
0.0
  0
LINE
  5
43A
330
1F
100
AcDbEntity
  8
0
100
AcDbLine
 10
-30.84202471018296
 20
20.92659970697523
 30
0.0
 11
-30.99525128467233
 21
20.89121984085552
 31
0.0
  0
LINE
  5
43B
330
1F
100
AcDbEntity
  8
0
100
AcDbLine
 10
-30.99525128467233
 20
20.89121984085552
 30
0.0
 11
-31.14139590175653
 21
20.83315204467115
 31
0.0
  0
LINE
  5
43C
330
1F
100
AcDbEntity
  8
0
100
AcDbLine
 10
-31.14139590175653
 20
20.83315204467115
 30
0.0
 11
-31.27712026147284
 21
20.75372272869779
 31
0.0
  0
LINE
  5
43D
330
1F
100
AcDbEntity
  8
0
100
AcDbLine
 10
-31.27712026147284
 20
20.75372272869779
 30
0.0
 11
-31.39932408798477
 21
20.65474625249137
 31
0.0
  0
LINE
  5
43E
330
1F
100
AcDbEntity
  8
0
100
AcDbLine
 10
-31.39932408798477
 20
20.65474625249137
 30
0.0
 11
-31.50521594745351
 21
20.53848348048481
 31
0.0
  0
LINE
  5
43F
330
1F
100
AcDbEntity
  8
0
100
AcDbLine
 10
-31.39932408798477
 20
-10.57646189152176
 30
0.0
 11
-31.50521594745351
 21
-10.4601991195152
 31
0.0
  0
LINE
  5
440
330
1F
100
AcDbEntity
  8
0
100
AcDbLine
 10
-29.15729310782422
 20
-12.65089365673402
 30
0.0
 11
-29.09922531163985
 21
-12.79703827381822
 31
0.0
  0
LINE
  5
441
330
1F
100
AcDbEntity
  8
0
100
AcDbLine
 10
-29.86521654745351
 20
-10.4601991195152
 30
0.0
 11
-29.97110840692225
 21
-10.57646189152176
 31
0.0
  0
LINE
  5
442
330
1F
100
AcDbEntity
  8
0
100
AcDbLine
 10
-30.22903659315049
 20
-10.75486768370153
 30
0.0
 11
-30.37518121023469
 21
-10.81293547988591
 31
0.0
  0
LINE
  5
443
330
1F
100
AcDbEntity
  8
0
100
AcDbLine
 10
-30.37518121023469
 20
-10.81293547988591
 30
0.0
 11
-30.52840778472407
 21
-10.84831534600561
 31
0.0
  0
LINE
  5
444
330
1F
100
AcDbEntity
  8
0
100
AcDbLine
 10
-29.97110840692225
 20
-10.57646189152176
 30
0.0
 11
-30.09331223343418
 21
-10.67543836772818
 31
0.0
  0
LINE
  5
445
330
1F
100
AcDbEntity
  8
0
100
AcDbLine
 10
-30.09331223343418
 20
-10.67543836772818
 30
0.0
 11
-30.22903659315049
 21
-10.75486768370153
 31
0.0
  0
LINE
  5
446
330
1F
100
AcDbEntity
  8
0
100
AcDbLine
 10
-29.20455674745351
 20
-12.3408586195152
 30
0.0
 11
-29.19267297394394
 21
-12.49766708224464
 31
0.0
  0
LINE
  5
447
330
1F
100
AcDbEntity
  8
0
100
AcDbLine
 10
-28.80455674745351
 20
-11.5208589195152
 30
0.0
 11
-28.92081951946008
 21
-11.62675077898394
 31
0.0
  0
LINE
  5
448
330
1F
100
AcDbEntity
  8
0
100
AcDbLine
 10
-30.52840778472407
 20
-10.84831534600561
 30
0.0
 11
-30.68521624745351
 21
-10.86019911951519
 31
0.0
  0
LINE
  5
449
330
1F
100
AcDbEntity
  8
0
100
AcDbLine
 10
-29.19267297394394
 20
-12.49766708224464
 30
0.0
 11
-29.15729310782422
 21
-12.65089365673402
 31
0.0
  0
LINE
  5
44A
330
1F
100
AcDbEntity
  8
0
100
AcDbLine
 10
-28.92081951946008
 20
-13.05496646004646
 30
0.0
 11
-28.80455674745351
 21
-13.1608583195152
 31
0.0
  0
LINE
  5
44B
330
1F
100
AcDbEntity
  8
0
100
AcDbLine
 10
-31.14139590175653
 20
-10.75486768370153
 30
0.0
 11
-31.27712026147284
 21
-10.67543836772818
 31
0.0
  0
LINE
  5
44C
330
1F
100
AcDbEntity
  8
0
100
AcDbLine
 10
-30.84202471018296
 20
-10.84831534600561
 30
0.0
 11
-30.99525128467233
 21
-10.81293547988591
 31
0.0
  0
LINE
  5
44D
330
1F
100
AcDbEntity
  8
0
100
AcDbLine
 10
-29.09922531163985
 20
-12.79703827381822
 30
0.0
 11
-29.0197959956665
 21
-12.93276263353453
 31
0.0
  0
LINE
  5
44E
330
1F
100
AcDbEntity
  8
0
100
AcDbLine
 10
-28.92081951946008
 20
-11.62675077898394
 30
0.0
 11
-29.0197959956665
 21
-11.74895460549587
 31
0.0
  0
LINE
  5
44F
330
1F
100
AcDbEntity
  8
0
100
AcDbLine
 10
-29.15729310782422
 20
-12.03082358229638
 30
0.0
 11
-29.19267297394394
 21
-12.18405015678576
 31
0.0
  0
LINE
  5
450
330
1F
100
AcDbEntity
  8
0
100
AcDbLine
 10
-29.0197959956665
 20
-11.74895460549587
 30
0.0
 11
-29.09922531163985
 21
-11.88467896521217
 31
0.0
  0
LINE
  5
451
330
1F
100
AcDbEntity
  8
0
100
AcDbLine
 10
-22.13851834699829
 20
-3.21477196738593
 30
0.0
 11
-22.2552158474535
 21
-3.142204798362796
 31
0.0
  0
LINE
  5
452
330
1F
100
AcDbEntity
  8
0
100
AcDbLine
 10
-24.23402228537114
 20
-6.844291256108385
 30
0.0
 11
-24.10885123195688
 21
-6.901005522564802
 31
0.0
  0
LINE
  5
453
330
1F
100
AcDbEntity
  8
0
100
AcDbLine
 10
-25.40071988582635
 20
-4.823511735051262
 30
0.0
 11
-25.4052161474535
 21
-4.960858319515191
 31
0.0
  0
LINE
  5
454
330
1F
100
AcDbEntity
  8
0
100
AcDbLine
 10
-25.36486523245734
 20
-4.551168604263257
 30
0.0
 11
-25.38725035462748
 21
-4.686753289747842
 31
0.0
  0
LINE
  5
455
330
1F
100
AcDbEntity
  8
0
100
AcDbLine
 10
-23.16786936298957
 20
-7.05636225788805
 30
0.0
 11
-23.03111091768615
 21
-7.042892726689176
 31
0.0
  0
LINE
  5
456
330
1F
100
AcDbEntity
  8
0
100
AcDbLine
 10
-21.92058960387419
 20
-3.38199457344138
 30
0.0
 11
-22.0268168247829
 21
-3.294816146232936
 31
0.0
  0
LINE
  5
457
330
1F
100
AcDbEntity
  8
0
100
AcDbLine
 10
-29.19267297394394
 20
-12.18405015678576
 30
0.0
 11
-29.20455674745351
 21
-12.3408586195152
 31
0.0
  0
LINE
  5
458
330
1F
100
AcDbEntity
  8
0
100
AcDbLine
 10
-25.24536315050311
 20
-4.157223035011817
 30
0.0
 11
-25.29376940877925
 21
-4.285835378090661
 31
0.0
  0
LINE
  5
459
330
1F
100
AcDbEntity
  8
0
100
AcDbLine
 10
-24.7901403293666
 20
-3.475933937602088
 30
0.0
 11
-24.88407969352731
 21
-3.576231975935888
 31
0.0
  0
LINE
  5
45A
330
1F
100
AcDbEntity
  8
0
100
AcDbLine
 10
-23.03111091768615
 20
-2.878823912341222
 30
0.0
 11
-23.16786936298957
 21
-2.865354381142342
 31
0.0
  0
LINE
  5
45B
330
1F
100
AcDbEntity
  8
0
100
AcDbLine
 10
-25.05130229958277
 20
-3.79416071905998
 30
0.0
 11
-25.1238694686059
 21
-3.910858219515194
 31
0.0
  0
LINE
  5
45C
330
1F
100
AcDbEntity
  8
0
100
AcDbLine
 10
-23.71490566270543
 20
-2.901209034511357
 30
0.0
 11
-23.8487359939326
 21
-2.932413891122988
 31
0.0
  0
LINE
  5
45D
330
1F
100
AcDbEntity
  8
0
100
AcDbLine
 10
-30.68521624745351
 20
-10.86019911951519
 30
0.0
 11
-30.84202471018296
 21
-10.84831534600561
 31
0.0
  0
LINE
  5
45E
330
1F
100
AcDbEntity
  8
0
100
AcDbLine
 10
-25.24536315050311
 20
-5.764493604018566
 30
0.0
 11
-25.1886488840467
 21
-5.889664657432829
 31
0.0
  0
LINE
  5
45F
330
1F
100
AcDbEntity
  8
0
100
AcDbLine
 10
-23.98023888887803
 20
-2.972304858189446
 30
0.0
 11
-24.10885123195688
 21
-3.020711116465586
 31
0.0
  0
LINE
  5
460
330
1F
100
AcDbEntity
  8
0
100
AcDbLine
 10
-23.44256253191742
 20
-2.865354381142342
 30
0.0
 11
-23.57932097722085
 21
-2.878823912341222
 31
0.0
  0
LINE
  5
461
330
1F
100
AcDbEntity
  8
0
100
AcDbLine
 10
-23.44256253191743
 20
-7.05636225788805
 30
0.0
 11
-23.3052159474535
 21
-7.0608585195152
 31
0.0
  0
LINE
  5
462
330
1F
100
AcDbEntity
  8
0
100
AcDbLine
 10
-25.29376940877926
 20
-5.635881260939722
 30
0.0
 11
-25.24536315050311
 21
-5.764493604018566
 31
0.0
  0
LINE
  5
463
330
1F
100
AcDbEntity
  8
0
100
AcDbLine
 10
-22.0268168247829
 20
-3.294816146232936
 30
0.0
 11
-22.13851834699829
 21
-3.21477196738593
 31
0.0
  0
LINE
  5
464
330
1F
100
AcDbEntity
  8
0
100
AcDbLine
 10
-22.89552623220156
 20
-2.901209034511357
 30
0.0
 11
-23.03111091768615
 21
-2.878823912341222
 31
0.0
  0
LINE
  5
465
330
1F
100
AcDbEntity
  8
0
100
AcDbLine
 10
-24.47191354790871
 20
-3.214771967385925
 30
0.0
 11
-24.5836150701241
 21
-3.29481614623293
 31
0.0
  0
LINE
  5
466
330
1F
100
AcDbEntity
  8
0
100
AcDbLine
 10
-25.33366037584571
 20
-4.417338273036092
 30
0.0
 11
-25.36486523245734
 21
-4.551168604263257
 31
0.0
  0
LINE
  5
467
330
1F
100
AcDbEntity
  8
0
100
AcDbLine
 10
-22.50158066295013
 20
-3.020711116465586
 30
0.0
 11
-22.63019300602897
 21
-2.972304858189446
 31
0.0
  0
LINE
  5
468
330
1F
100
AcDbEntity
  8
0
100
AcDbLine
 10
-25.36486523245734
 20
-5.370548034767126
 30
0.0
 11
-25.33366037584571
 21
-5.504378365994291
 31
0.0
  0
LINE
  5
469
330
1F
100
AcDbEntity
  8
0
100
AcDbLine
 10
-30.99525128467233
 20
-10.81293547988591
 30
0.0
 11
-31.14139590175653
 21
-10.75486768370153
 31
0.0
  0
LINE
  5
46A
330
1F
100
AcDbEntity
  8
0
100
AcDbLine
 10
-24.5836150701241
 20
-3.29481614623293
 30
0.0
 11
-24.68984229103281
 21
-3.38199457344138
 31
0.0
  0
LINE
  5
46B
330
1F
100
AcDbEntity
  8
0
100
AcDbLine
 10
-24.10885123195688
 20
-3.020711116465586
 30
0.0
 11
-24.23402228537114
 21
-3.077425382922002
 31
0.0
  0
LINE
  5
46C
330
1F
100
AcDbEntity
  8
0
100
AcDbLine
 10
-24.47191354790872
 20
-6.706944671644457
 30
0.0
 11
-24.3552160474535
 21
-6.779511840667597
 31
0.0
  0
LINE
  5
46D
330
1F
100
AcDbEntity
  8
0
100
AcDbLine
 10
-25.40071988582635
 20
-5.098204903979114
 30
0.0
 11
-25.38725035462748
 21
-5.234963349282535
 31
0.0
  0
LINE
  5
46E
330
1F
100
AcDbEntity
  8
0
100
AcDbLine
 10
-23.98023888887804
 20
-6.949411780840942
 30
0.0
 11
-23.84873599393261
 21
-6.989302747907406
 31
0.0
  0
LINE
  5
46F
330
1F
100
AcDbEntity
  8
0
100
AcDbLine
 10
-24.10885123195688
 20
-6.901005522564802
 30
0.0
 11
-23.98023888887804
 21
-6.949411780840942
 31
0.0
  0
LINE
  5
470
330
1F
100
AcDbEntity
  8
0
100
AcDbLine
 10
-24.3552160474535
 20
-6.779511840667597
 30
0.0
 11
-24.23402228537114
 21
-6.844291256108385
 31
0.0
  0
LINE
  5
471
330
1F
100
AcDbEntity
  8
0
100
AcDbLine
 10
-31.27712026147284
 20
-10.67543836772818
 30
0.0
 11
-31.39932408798477
 21
-10.57646189152176
 31
0.0
  0
LINE
  5
472
330
1F
100
AcDbEntity
  8
0
100
AcDbLine
 10
-29.09922531163985
 20
-11.88467896521217
 30
0.0
 11
-29.15729310782422
 21
-12.03082358229638
 31
0.0
  0
LINE
  5
473
330
1F
100
AcDbEntity
  8
0
100
AcDbLine
 10
-24.3552160474535
 20
-3.142204798362791
 30
0.0
 11
-24.47191354790871
 21
-3.214771967385925
 31
0.0
  0
LINE
  5
474
330
1F
100
AcDbEntity
  8
0
100
AcDbLine
 10
-24.88407969352731
 20
-3.576231975935888
 30
0.0
 11
-24.97125812073576
 21
-3.682459196844591
 31
0.0
  0
LINE
  5
475
330
1F
100
AcDbEntity
  8
0
100
AcDbLine
 10
-23.57932097722085
 20
-2.878823912341222
 30
0.0
 11
-23.71490566270543
 21
-2.901209034511357
 31
0.0
  0
LINE
  5
476
330
1F
100
AcDbEntity
  8
0
100
AcDbLine
 10
-22.37640960953586
 20
-3.077425382922002
 30
0.0
 11
-22.50158066295013
 21
-3.020711116465586
 31
0.0
  0
LINE
  5
477
330
1F
100
AcDbEntity
  8
0
100
AcDbLine
 10
-25.1886488840467
 20
-4.032051981597554
 30
0.0
 11
-25.24536315050311
 21
-4.157223035011817
 31
0.0
  0
LINE
  5
478
330
1F
100
AcDbEntity
  8
0
100
AcDbLine
 10
-22.7616959009744
 20
-2.932413891122988
 30
0.0
 11
-22.89552623220156
 21
-2.901209034511357
 31
0.0
  0
LINE
  5
479
330
1F
100
AcDbEntity
  8
0
100
AcDbLine
 10
-29.0197959956665
 20
-12.93276263353453
 30
0.0
 11
-28.92081951946008
 21
-13.05496646004646
 31
0.0
  0
LINE
  5
47A
330
1F
100
AcDbEntity
  8
0
100
AcDbLine
 10
-24.97125812073576
 20
-3.682459196844591
 30
0.0
 11
-25.05130229958277
 21
-3.79416071905998
 31
0.0
  0
LINE
  5
47B
330
1F
100
AcDbEntity
  8
0
100
AcDbLine
 10
-24.79014032936661
 20
-6.445782701428294
 30
0.0
 11
-24.68984229103281
 21
-6.539722065589002
 31
0.0
  0
LINE
  5
47C
330
1F
100
AcDbEntity
  8
0
100
AcDbLine
 10
-23.16786936298957
 20
-2.865354381142342
 30
0.0
 11
-23.3052159474535
 21
-2.860858119515197
 31
0.0
  0
LINE
  5
47D
330
1F
100
AcDbEntity
  8
0
100
AcDbLine
 10
-23.3052159474535
 20
-2.860858119515197
 30
0.0
 11
-23.44256253191742
 21
-2.865354381142342
 31
0.0
  0
LINE
  5
47E
330
1F
100
AcDbEntity
  8
0
100
AcDbLine
 10
-23.8487359939326
 20
-2.932413891122988
 30
0.0
 11
-23.98023888887803
 21
-2.972304858189446
 31
0.0
  0
LINE
  5
47F
330
1F
100
AcDbEntity
  8
0
100
AcDbLine
 10
-22.89552623220156
 20
-7.020507604519041
 30
0.0
 11
-22.7616959009744
 21
-6.989302747907406
 31
0.0
  0
LINE
  5
480
330
1F
100
AcDbEntity
  8
0
100
AcDbLine
 10
-25.33366037584571
 20
-5.504378365994291
 30
0.0
 11
-25.29376940877926
 21
-5.635881260939722
 31
0.0
  0
LINE
  5
481
330
1F
100
AcDbEntity
  8
0
100
AcDbLine
 10
-22.7616959009744
 20
-6.989302747907406
 30
0.0
 11
-22.63019300602896
 21
-6.949411780840942
 31
0.0
  0
LINE
  5
482
330
1F
100
AcDbEntity
  8
0
100
AcDbLine
 10
-22.63019300602897
 20
-2.972304858189446
 30
0.0
 11
-22.7616959009744
 21
-2.932413891122988
 31
0.0
  0
LINE
  5
483
330
1F
100
AcDbEntity
  8
0
100
AcDbLine
 10
-25.1238694686059
 20
-3.910858219515194
 30
0.0
 11
-25.1886488840467
 21
-4.032051981597554
 31
0.0
  0
LINE
  5
484
330
1F
100
AcDbEntity
  8
0
100
AcDbLine
 10
-24.68984229103281
 20
-6.539722065589002
 30
0.0
 11
-24.58361507012411
 21
-6.626900492797452
 31
0.0
  0
LINE
  5
485
330
1F
100
AcDbEntity
  8
0
100
AcDbLine
 10
-24.58361507012411
 20
-6.626900492797452
 30
0.0
 11
-24.47191354790872
 21
-6.706944671644457
 31
0.0
  0
LINE
  5
486
330
1F
100
AcDbEntity
  8
0
100
AcDbLine
 10
-22.2552158474535
 20
-3.142204798362796
 30
0.0
 11
-22.37640960953586
 21
-3.077425382922002
 31
0.0
  0
LINE
  5
487
330
1F
100
AcDbEntity
  8
0
100
AcDbLine
 10
-23.71490566270543
 20
-7.020507604519041
 30
0.0
 11
-23.57932097722085
 21
-7.042892726689176
 31
0.0
  0
LINE
  5
488
330
1F
100
AcDbEntity
  8
0
100
AcDbLine
 10
-25.29376940877925
 20
-4.285835378090661
 30
0.0
 11
-25.33366037584571
 21
-4.417338273036092
 31
0.0
  0
LINE
  5
489
330
1F
100
AcDbEntity
  8
0
100
AcDbLine
 10
-24.23402228537114
 20
-3.077425382922002
 30
0.0
 11
-24.3552160474535
 21
-3.142204798362791
 31
0.0
  0
LINE
  5
48A
330
1F
100
AcDbEntity
  8
0
100
AcDbLine
 10
-25.38725035462748
 20
-4.686753289747842
 30
0.0
 11
-25.40071988582635
 21
-4.823511735051262
 31
0.0
  0
LINE
  5
48B
330
1F
100
AcDbEntity
  8
0
100
AcDbLine
 10
-25.4052161474535
 20
-4.960858319515191
 30
0.0
 11
-25.40071988582635
 21
-5.098204903979114
 31
0.0
  0
LINE
  5
48C
330
1F
100
AcDbEntity
  8
0
100
AcDbLine
 10
-24.68984229103281
 20
-3.38199457344138
 30
0.0
 11
-24.7901403293666
 21
-3.475933937602088
 31
0.0
  0
LINE
  5
48D
330
1F
100
AcDbEntity
  8
0
100
AcDbLine
 10
-17.59063589924053
 20
-12.93276263353452
 30
0.0
 11
-17.51120658326718
 21
-12.79703827381822
 31
0.0
  0
LINE
  5
48E
330
1F
100
AcDbEntity
  8
0
100
AcDbLine
 10
-17.51120658326718
 20
-11.88467896521217
 30
0.0
 11
-17.59063589924053
 21
-11.74895460549587
 31
0.0
  0
LINE
  5
48F
330
1F
100
AcDbEntity
  8
0
100
AcDbLine
 10
-21.20971200908065
 20
-5.098204903979102
 30
0.0
 11
-21.2052157474535
 21
-4.960858319515197
 31
0.0
  0
LINE
  5
490
330
1F
100
AcDbEntity
  8
0
100
AcDbLine
 10
-23.3052159474535
 20
-2.860858119515197
 30
0.0
 11
-23.28886327077716
 21
-4.950105380174781
 31
0.0
  0
LINE
  5
491
330
1F
100
AcDbEntity
  8
0
100
AcDbLine
 10
-17.59063589924053
 20
-11.74895460549587
 30
0.0
 11
-17.68961237544696
 21
-11.62675077898394
 31
0.0
  0
LINE
  5
492
330
1F
100
AcDbEntity
  8
0
100
AcDbLine
 10
-15.10521594745351
 20
-10.4601991195152
 30
0.0
 11
-15.21110780692225
 21
-10.57646189152176
 31
0.0
  0
LINE
  5
493
330
1F
100
AcDbEntity
  8
0
100
AcDbLine
 10
-15.33331163343418
 20
-10.67543836772818
 30
0.0
 11
-15.46903599315049
 21
-10.75486768370154
 31
0.0
  0
LINE
  5
494
330
1F
100
AcDbEntity
  8
0
100
AcDbLine
 10
-21.82029156554039
 20
-6.445782701428294
 30
0.0
 11
-21.72635220137968
 21
-6.345484663094495
 31
0.0
  0
LINE
  5
495
330
1F
100
AcDbEntity
  8
0
100
AcDbLine
 10
-22.50158066295012
 20
-6.901005522564802
 30
0.0
 11
-22.37640960953585
 21
-6.844291256108385
 31
0.0
  0
LINE
  5
496
330
1F
100
AcDbEntity
  8
0
100
AcDbLine
 10
-17.68961237544696
 20
-11.62675077898394
 30
0.0
 11
-17.80587514745352
 21
-11.5208589195152
 31
0.0
  0
LINE
  5
497
330
1F
100
AcDbEntity
  8
0
100
AcDbLine
 10
-23.3052159474535
 20
-7.0608585195152
 30
0.0
 11
-23.16786936298957
 21
-7.05636225788805
 31
0.0
  0
LINE
  5
498
330
1F
100
AcDbEntity
  8
0
100
AcDbLine
 10
-21.92058960387418
 20
-6.539722065589002
 30
0.0
 11
-21.82029156554039
 21
-6.445782701428294
 31
0.0
  0
LINE
  5
499
330
1F
100
AcDbEntity
  8
0
100
AcDbLine
 10
-21.31666248612775
 20
-5.635881260939711
 30
0.0
 11
-21.27677151906128
 21
-5.50437836599428
 31
0.0
  0
LINE
  5
49A
330
1F
100
AcDbEntity
  8
0
100
AcDbLine
 10
-17.4177589209631
 20
-12.49766708224464
 30
0.0
 11
-17.40587514745352
 21
-12.3408586195152
 31
0.0
  0
LINE
  5
49B
330
1F
100
AcDbEntity
  8
0
100
AcDbLine
 10
-22.02681682478289
 20
-6.626900492797452
 30
0.0
 11
-21.92058960387418
 21
-6.539722065589002
 31
0.0
  0
LINE
  5
49C
330
1F
100
AcDbEntity
  8
0
100
AcDbLine
 10
-17.4177589209631
 20
-12.18405015678576
 30
0.0
 11
-17.4531387870828
 21
-12.03082358229638
 31
0.0
  0
LINE
  5
49D
330
1F
100
AcDbEntity
  8
0
100
AcDbLine
 10
-25.4052161474535
 20
-4.960858319515191
 30
0.0
 11
-26.03521614745351
 21
-4.960858319515197
 31
0.0
  0
LINE
  5
49E
330
1F
100
AcDbEntity
  8
0
100
AcDbLine
 10
-15.21110780692225
 20
-10.57646189152176
 30
0.0
 11
-15.33331163343418
 21
-10.67543836772818
 31
0.0
  0
LINE
  5
49F
330
1F
100
AcDbEntity
  8
0
100
AcDbLine
 10
-23.84873599393261
 20
-6.989302747907406
 30
0.0
 11
-23.71490566270543
 21
-7.020507604519041
 31
0.0
  0
LINE
  5
4A0
330
1F
100
AcDbEntity
  8
0
100
AcDbLine
 10
-17.4531387870828
 20
-12.65089365673402
 30
0.0
 11
-17.4177589209631
 21
-12.49766708224464
 31
0.0
  0
LINE
  5
4A1
330
1F
100
AcDbEntity
  8
0
100
AcDbLine
 10
-17.68961237544696
 20
-13.05496646004645
 30
0.0
 11
-17.59063589924053
 21
-12.93276263353452
 31
0.0
  0
LINE
  5
4A2
330
1F
100
AcDbEntity
  8
0
100
AcDbLine
 10
-17.4531387870828
 20
-12.03082358229638
 30
0.0
 11
-17.51120658326718
 21
-11.88467896521217
 31
0.0
  0
LINE
  5
4A3
330
1F
100
AcDbEntity
  8
0
100
AcDbLine
 10
-23.03111091768615
 20
-7.042892726689176
 30
0.0
 11
-22.89552623220156
 21
-7.020507604519041
 31
0.0
  0
LINE
  5
4A4
330
1F
100
AcDbEntity
  8
0
100
AcDbLine
 10
-22.13851834699828
 20
-6.706944671644457
 30
0.0
 11
-22.02681682478289
 21
-6.626900492797452
 31
0.0
  0
LINE
  5
4A5
330
1F
100
AcDbEntity
  8
0
100
AcDbLine
 10
-16.23525068467234
 20
-10.81293547988591
 30
0.0
 11
-16.38139530175653
 21
-10.75486768370154
 31
0.0
  0
LINE
  5
4A6
330
1F
100
AcDbEntity
  8
0
100
AcDbLine
 10
-21.4865624263011
 20
-6.010858419515182
 30
0.0
 11
-21.4217830108603
 21
-5.889664657432824
 31
0.0
  0
LINE
  5
4A7
330
1F
100
AcDbEntity
  8
0
100
AcDbLine
 10
-23.3052159474535
 20
-7.0608585195152
 30
0.0
 11
-23.3052159474535
 21
-7.690858519515196
 31
0.0
  0
LINE
  5
4A8
330
1F
100
AcDbEntity
  8
0
100
AcDbLine
 10
-22.63019300602896
 20
-6.949411780840942
 30
0.0
 11
-22.50158066295012
 21
-6.901005522564802
 31
0.0
  0
LINE
  5
4A9
330
1F
100
AcDbEntity
  8
0
100
AcDbLine
 10
-21.55912959532423
 20
-6.127555919970397
 30
0.0
 11
-21.4865624263011
 21
-6.010858419515182
 31
0.0
  0
LINE
  5
4AA
330
1F
100
AcDbEntity
  8
0
100
AcDbLine
 10
-21.63917377417123
 20
-6.239257442185785
 30
0.0
 11
-21.55912959532423
 21
-6.127555919970397
 31
0.0
  0
LINE
  5
4AB
330
1F
100
AcDbEntity
  8
0
100
AcDbLine
 10
-21.72635220137968
 20
-6.345484663094495
 30
0.0
 11
-21.63917377417123
 21
-6.239257442185785
 31
0.0
  0
LINE
  5
4AC
330
1F
100
AcDbEntity
  8
0
100
AcDbLine
 10
-21.24556666244965
 20
-5.370548034767114
 30
0.0
 11
-21.22318154027953
 21
-5.234963349282523
 31
0.0
  0
LINE
  5
4AD
330
1F
100
AcDbEntity
  8
0
100
AcDbLine
 10
-25.38725035462748
 20
-5.234963349282535
 30
0.0
 11
-25.36486523245734
 21
-5.370548034767126
 31
0.0
  0
LINE
  5
4AE
330
1F
100
AcDbEntity
  8
0
100
AcDbLine
 10
-21.36506874440389
 20
-5.764493604018554
 30
0.0
 11
-21.31666248612775
 21
-5.635881260939711
 31
0.0
  0
LINE
  5
4AF
330
1F
100
AcDbEntity
  8
0
100
AcDbLine
 10
-23.57932097722085
 20
-7.042892726689176
 30
0.0
 11
-23.44256253191743
 21
-7.05636225788805
 31
0.0
  0
LINE
  5
4B0
330
1F
100
AcDbEntity
  8
0
100
AcDbLine
 10
-21.4217830108603
 20
-5.889664657432824
 30
0.0
 11
-21.36506874440389
 21
-5.764493604018554
 31
0.0
  0
LINE
  5
4B1
330
1F
100
AcDbEntity
  8
0
100
AcDbLine
 10
-21.2052157474535
 20
-4.960858319515197
 30
0.0
 11
-23.28911288752099
 21
-4.982325140651999
 31
0.0
  0
LINE
  5
4B2
330
1F
100
AcDbEntity
  8
0
100
AcDbLine
 10
-22.37640960953585
 20
-6.844291256108385
 30
0.0
 11
-22.25521584745349
 21
-6.779511840667592
 31
0.0
  0
LINE
  5
4B3
330
1F
100
AcDbEntity
  8
0
100
AcDbLine
 10
-22.25521584745349
 20
-6.779511840667592
 30
0.0
 11
-22.13851834699828
 21
-6.706944671644457
 31
0.0
  0
LINE
  5
4B4
330
1F
100
AcDbEntity
  8
0
100
AcDbLine
 10
-17.40587514745352
 20
-12.3408586195152
 30
0.0
 11
-17.4177589209631
 21
-12.18405015678576
 31
0.0
  0
LINE
  5
4B5
330
1F
100
AcDbEntity
  8
0
100
AcDbLine
 10
-21.27677151906128
 20
-5.50437836599428
 30
0.0
 11
-21.24556666244965
 21
-5.370548034767114
 31
0.0
  0
LINE
  5
4B6
330
1F
100
AcDbEntity
  8
0
100
AcDbLine
 10
-21.22318154027953
 20
-5.234963349282523
 30
0.0
 11
-21.20971200908065
 21
-5.098204903979102
 31
0.0
  0
LINE
  5
4B7
330
1F
100
AcDbEntity
  8
0
100
AcDbLine
 10
-17.80587514745352
 20
-13.1608583195152
 30
0.0
 11
-17.68961237544696
 21
-13.05496646004645
 31
0.0
  0
LINE
  5
4B8
330
1F
100
AcDbEntity
  8
0
100
AcDbLine
 10
-17.51120658326718
 20
-12.79703827381822
 30
0.0
 11
-17.4531387870828
 21
-12.65089365673402
 31
0.0
  0
LINE
  5
4B9
330
1F
100
AcDbEntity
  8
0
100
AcDbLine
 10
-16.38139530175653
 20
-10.75486768370154
 30
0.0
 11
-16.51711966147285
 21
-10.67543836772818
 31
0.0
  0
LINE
  5
4BA
330
1F
100
AcDbEntity
  8
0
100
AcDbLine
 10
-16.63932348798477
 20
-10.57646189152176
 30
0.0
 11
-16.74521534745352
 21
-10.4601991195152
 31
0.0
  0
LINE
  5
4BB
330
1F
100
AcDbEntity
  8
0
100
AcDbLine
 10
-15.61518061023469
 20
-10.81293547988591
 30
0.0
 11
-15.76840718472407
 21
-10.84831534600562
 31
0.0
  0
LINE
  5
4BC
330
1F
100
AcDbEntity
  8
0
100
AcDbLine
 10
-15.46903599315049
 20
-10.75486768370154
 30
0.0
 11
-15.61518061023469
 21
-10.81293547988591
 31
0.0
  0
LINE
  5
4BD
330
1F
100
AcDbEntity
  8
0
100
AcDbLine
 10
-16.51711966147285
 20
-10.67543836772818
 30
0.0
 11
-16.63932348798477
 21
-10.57646189152176
 31
0.0
  0
LINE
  5
4BE
330
1F
100
AcDbEntity
  8
0
100
AcDbLine
 10
-15.76840718472407
 20
-10.84831534600562
 30
0.0
 11
-15.92521564745351
 21
-10.8601991195152
 31
0.0
  0
LINE
  5
4BF
330
1F
100
AcDbEntity
  8
0
100
AcDbLine
 10
-15.92521564745351
 20
-10.8601991195152
 30
0.0
 11
-16.08202411018296
 21
-10.84831534600562
 31
0.0
  0
LINE
  5
4C0
330
1F
100
AcDbEntity
  8
0
100
AcDbLine
 10
-16.08202411018296
 20
-10.84831534600562
 30
0.0
 11
-16.23525068467234
 21
-10.81293547988591
 31
0.0
  0
LINE
  5
4C1
330
1F
100
AcDbEntity
  8
0
100
AcDbLine
 10
-20.57521714745351
 20
-4.960858319515197
 30
0.0
 11
-21.2052157474535
 21
-4.960858319515197
 31
0.0
  0
LINE
  5
4C2
330
1F
100
AcDbEntity
  8
0
100
AcDbLine
 10
-23.3052159474535
 20
-2.230857919515198
 30
0.0
 11
-23.3052159474535
 21
-2.860858119515197
 31
0.0
  0
LINE
  5
4C3
330
1F
100
AcDbEntity
  8
0
100
AcDbLine
 10
-13.89207371853554
 20
-14.65088991651307
 30
0.0
 11
-13.81619712491931
 21
-14.58861960915179
 31
0.0
  0
LINE
  5
4C4
330
1F
100
AcDbEntity
  8
0
100
AcDbLine
 10
-32.20991279870219
 20
-14.90523583175771
 30
0.0
 11
-32.11040165787394
 21
-14.92948603643416
 31
0.0
  0
LINE
  5
4C5
330
1F
100
AcDbEntity
  8
0
100
AcDbLine
 10
-27.20587654745352
 20
-2.120857319515195
 30
0.0
 11
-27.20587654745352
 21
-4.760858319515197
 31
0.0
  0
LINE
  5
4C6
330
1F
100
AcDbEntity
  8
0
100
AcDbLine
 10
-31.9075812504209
 20
-14.95736306809644
 30
0.0
 11
-31.80521762599334
 21
-14.9608599195152
 31
0.0
  0
LINE
  5
4C7
330
1F
100
AcDbEntity
  8
0
100
AcDbLine
 10
-27.20587654745352
 20
-4.760858319515197
 30
0.0
 11
-27.00587654745351
 21
-4.960858319515197
 31
0.0
  0
LINE
  5
4C8
330
1F
100
AcDbEntity
  8
0
100
AcDbLine
 10
-33.30521754745351
 20
-9.600859119515196
 30
0.0
 11
-31.50521594745351
 21
-7.8008591195152
 31
0.0
  0
LINE
  5
4C9
330
1F
100
AcDbEntity
  8
0
100
AcDbLine
 10
-33.27384385371953
 20
-13.76604388120036
 30
0.0
 11
-33.24959364556949
 21
-13.86555502118213
 31
0.0
  0
LINE
  5
4CA
330
1F
100
AcDbEntity
  8
0
100
AcDbLine
 10
-32.11040165787394
 20
-14.92948603643416
 30
0.0
 11
-32.00946760809701
 21
-14.94688882849227
 31
0.0
  0
LINE
  5
4CB
330
1F
100
AcDbEntity
  8
0
100
AcDbLine
 10
-33.03067252213746
 20
-14.32588035801024
 30
0.0
 11
-32.96878461351046
 21
-14.40749179312546
 31
0.0
  0
LINE
  5
4CC
330
1F
100
AcDbEntity
  8
0
100
AcDbLine
 10
-33.18103465277056
 20
-14.05846150391435
 30
0.0
 11
-33.13704552173742
 21
-14.15095742775286
 31
0.0
  0
LINE
  5
4CD
330
1F
100
AcDbEntity
  8
0
100
AcDbLine
 10
-31.80521762599334
 20
-14.9608599195152
 30
0.0
 11
-27.94521694745351
 21
-14.9608591195152
 31
0.0
  0
LINE
  5
4CE
330
1F
100
AcDbEntity
  8
0
100
AcDbLine
 10
-33.30521754745351
 20
-0.3208573195151981
 30
0.0
 11
-31.50521594745351
 21
-2.120857319515195
 31
0.0
  0
LINE
  5
4CF
330
1F
100
AcDbEntity
  8
0
100
AcDbLine
 10
-31.50521594745351
 20
0.5384810804848046
 30
0.0
 11
-31.50521594745351
 21
-2.120857319515195
 31
0.0
  0
LINE
  5
4D0
330
1F
100
AcDbEntity
  8
0
100
AcDbLine
 10
-23.50521594745351
 20
-8.8615189195152
 30
0.0
 11
-23.3052159474535
 21
-8.661518919515197
 31
0.0
  0
LINE
  5
4D1
330
1F
100
AcDbEntity
  8
0
100
AcDbLine
 10
-14.60942670439711
 20
-14.9480272192621
 30
0.0
 11
-14.51258049281312
 21
-14.93203784968417
 31
0.0
  0
LINE
  5
4D2
330
1F
100
AcDbEntity
  8
0
100
AcDbLine
 10
-33.29124664930089
 20
-13.6651098320309
 30
0.0
 11
-33.27384385371953
 21
-13.76604388120036
 31
0.0
  0
LINE
  5
4D3
330
1F
100
AcDbEntity
  8
0
100
AcDbLine
 10
-32.49531520920159
 20
-14.79268771788806
 30
0.0
 11
-32.40281928382758
 21
-14.83667684569249
 31
0.0
  0
LINE
  5
4D4
330
1F
100
AcDbEntity
  8
0
100
AcDbLine
 10
-32.58459358128619
 20
-14.74248899426171
 30
0.0
 11
-32.49531520920159
 21
-14.79268771788806
 31
0.0
  0
LINE
  5
4D5
330
1F
100
AcDbEntity
  8
0
100
AcDbLine
 10
-15.10521594745351
 20
-10.4601991195152
 30
0.0
 11
-15.10521594745351
 21
-7.8008591195152
 31
0.0
  0
LINE
  5
4D6
330
1F
100
AcDbEntity
  8
0
100
AcDbLine
 10
-31.50521594745351
 20
-10.4601991195152
 30
0.0
 11
-31.50521594745351
 21
-7.8008591195152
 31
0.0
  0
LINE
  5
4D7
330
1F
100
AcDbEntity
  8
0
100
AcDbLine
 10
-32.75184958044761
 20
-14.62442681861584
 30
0.0
 11
-32.67023814317211
 21
-14.68631472439408
 31
0.0
  0
LINE
  5
4D8
330
1F
100
AcDbEntity
  8
0
100
AcDbLine
 10
-13.45990666591163
 20
-14.12429286384651
 30
0.0
 11
-13.41939647142464
 21
-14.03488496273986
 31
0.0
  0
LINE
  5
4D9
330
1F
100
AcDbEntity
  8
0
100
AcDbLine
 10
-32.8290473829864
 20
-14.55711382686109
 30
0.0
 11
-32.75184958044761
 21
-14.62442681861584
 31
0.0
  0
LINE
  5
4DA
330
1F
100
AcDbEntity
  8
0
100
AcDbLine
 10
-13.74455566202035
 20
-14.5215200604844
 30
0.0
 11
-13.67745610960182
 21
-14.44987860109876
 31
0.0
  0
LINE
  5
4DB
330
1F
100
AcDbEntity
  8
0
100
AcDbLine
 10
-33.13704552173742
 20
-14.15095742775286
 30
0.0
 11
-33.08684679499466
 21
-14.24023579808519
 31
0.0
  0
LINE
  5
4DC
330
1F
100
AcDbEntity
  8
0
100
AcDbLine
 10
-27.20587654745352
 20
-7.8008591195152
 30
0.0
 11
-27.20587654745352
 21
-5.160858319515197
 31
0.0
  0
LINE
  5
4DD
330
1F
100
AcDbEntity
  8
0
100
AcDbLine
 10
-13.35632701822267
 20
-13.84908835157673
 30
0.0
 11
-13.3340378326069
 21
-13.7534952511863
 31
0.0
  0
LINE
  5
4DE
330
1F
100
AcDbEntity
  8
0
100
AcDbLine
 10
-19.40455674745351
 20
-7.8008591195152
 30
0.0
 11
-19.40455674745351
 21
-5.160858319515197
 31
0.0
  0
LINE
  5
4DF
330
1F
100
AcDbEntity
  8
0
100
AcDbLine
 10
-19.40455674745351
 20
-4.760858319515197
 30
0.0
 11
-19.60455674745352
 21
-4.960858319515197
 31
0.0
  0
LINE
  5
4E0
330
1F
100
AcDbEntity
  8
0
100
AcDbLine
 10
-13.38482056908436
 20
-13.94301899725195
 30
0.0
 11
-13.35632701822267
 21
-13.84908835157673
 31
0.0
  0
LINE
  5
4E1
330
1F
100
AcDbEntity
  8
0
100
AcDbLine
 10
-17.80587514745352
 20
-11.5208589195152
 30
0.0
 11
-20.46521654745351
 21
-8.8615189195152
 31
0.0
  0
LINE
  5
4E2
330
1F
100
AcDbEntity
  8
0
100
AcDbLine
 10
-32.67023814317211
 20
-14.68631472439408
 30
0.0
 11
-32.58459358128619
 21
-14.74248899426171
 31
0.0
  0
LINE
  5
4E3
330
1F
100
AcDbEntity
  8
0
100
AcDbLine
 10
-33.24959364556949
 20
-13.86555502118213
 30
0.0
 11
-33.21860909049546
 21
-13.96317928518783
 31
0.0
  0
LINE
  5
4E4
330
1F
100
AcDbEntity
  8
0
100
AcDbLine
 10
-13.55801137906866
 20
-14.29421520464746
 30
0.0
 11
-13.50617768166174
 21
-14.2108598421877
 31
0.0
  0
LINE
  5
4E5
330
1F
100
AcDbEntity
  8
0
100
AcDbLine
 10
-14.05521589279849
 20
-14.75989802457688
 30
0.0
 11
-13.97186052762473
 21
-14.70806433153444
 31
0.0
  0
LINE
  5
4E6
330
1F
100
AcDbEntity
  8
0
100
AcDbLine
 10
-14.8052159474535
 20
-14.9608591195152
 30
0.0
 11
-18.66521654745351
 21
-14.9608591195152
 31
0.0
  0
LINE
  5
4E7
330
1F
100
AcDbEntity
  8
0
100
AcDbLine
 10
-20.46521654745351
 20
-13.1608583195152
 30
0.0
 11
-17.80587514745352
 21
-13.1608583195152
 31
0.0
  0
LINE
  5
4E8
330
1F
100
AcDbEntity
  8
0
100
AcDbLine
 10
-23.10521594745351
 20
-8.8615189195152
 30
0.0
 11
-23.3052159474535
 21
-8.661518919515197
 31
0.0
  0
LINE
  5
4E9
330
1F
100
AcDbEntity
  8
0
100
AcDbLine
 10
-33.30521754745351
 20
-13.4608597195152
 30
0.0
 11
-33.30521754745351
 21
-9.600859119515196
 31
0.0
  0
LINE
  5
4EA
330
1F
100
AcDbEntity
  8
0
100
AcDbLine
 10
-13.97186052762473
 20
-14.70806433153444
 30
0.0
 11
-13.89207371853554
 21
-14.65088991651307
 31
0.0
  0
LINE
  5
4EB
330
1F
100
AcDbEntity
  8
0
100
AcDbLine
 10
-18.66521654745351
 20
-14.9608591195152
 30
0.0
 11
-20.46521654745351
 21
-13.1608583195152
 31
0.0
  0
LINE
  5
4EC
330
1F
100
AcDbEntity
  8
0
100
AcDbLine
 10
-14.23119077679019
 20
-14.84667922559995
 30
0.0
 11
-14.14178287356243
 21
-14.80616903579435
 31
0.0
  0
LINE
  5
4ED
330
1F
100
AcDbEntity
  8
0
100
AcDbLine
 10
-26.14521694745351
 20
-13.1608583195152
 30
0.0
 11
-28.80455674745351
 21
-13.1608583195152
 31
0.0
  0
LINE
  5
4EE
330
1F
100
AcDbEntity
  8
0
100
AcDbLine
 10
-32.00946760809701
 20
-14.94688882849227
 30
0.0
 11
-31.9075812504209
 21
-14.95736306809644
 31
0.0
  0
LINE
  5
4EF
330
1F
100
AcDbEntity
  8
0
100
AcDbLine
 10
-33.08684679499466
 20
-14.24023579808519
 30
0.0
 11
-33.03067252213746
 21
-14.32588035801024
 31
0.0
  0
LINE
  5
4F0
330
1F
100
AcDbEntity
  8
0
100
AcDbLine
 10
-33.30172089246158
 20
-13.5632234747204
 30
0.0
 11
-33.29124664930089
 21
-13.6651098320309
 31
0.0
  0
LINE
  5
4F1
330
1F
100
AcDbEntity
  8
0
100
AcDbLine
 10
-23.50521594745351
 20
-8.8615189195152
 30
0.0
 11
-26.14521694745351
 21
-8.8615189195152
 31
0.0
  0
LINE
  5
4F2
330
1F
100
AcDbEntity
  8
0
100
AcDbLine
 10
-13.61518579826766
 20
-14.374002010743
 30
0.0
 11
-13.55801137906866
 21
-14.29421520464746
 31
0.0
  0
LINE
  5
4F3
330
1F
100
AcDbEntity
  8
0
100
AcDbLine
 10
-14.70711131563385
 20
-14.95764830886761
 30
0.0
 11
-14.60942670439711
 21
-14.9480272192621
 31
0.0
  0
LINE
  5
4F4
330
1F
100
AcDbEntity
  8
0
100
AcDbLine
 10
-33.21860909049546
 20
-13.96317928518783
 30
0.0
 11
-33.18103465277056
 21
-14.05846150391435
 31
0.0
  0
LINE
  5
4F5
330
1F
100
AcDbEntity
  8
0
100
AcDbLine
 10
-32.40281928382758
 20
-14.83667684569249
 30
0.0
 11
-32.30753706378947
 21
-14.87425128009141
 31
0.0
  0
LINE
  5
4F6
330
1F
100
AcDbEntity
  8
0
100
AcDbLine
 10
-33.30521754745351
 20
-13.4608597195152
 30
0.0
 11
-33.30172089246158
 21
-13.5632234747204
 31
0.0
  0
LINE
  5
4F7
330
1F
100
AcDbEntity
  8
0
100
AcDbLine
 10
-32.90147161906099
 20
-14.48468959331457
 30
0.0
 11
-32.8290473829864
 21
-14.55711382686109
 31
0.0
  0
LINE
  5
4F8
330
1F
100
AcDbEntity
  8
0
100
AcDbLine
 10
-14.32305674408848
 20
-14.88125512313014
 30
0.0
 11
-14.23119077679019
 21
-14.84667922559995
 31
0.0
  0
LINE
  5
4F9
330
1F
100
AcDbEntity
  8
0
100
AcDbLine
 10
-14.8052159474535
 20
-14.9608591195152
 30
0.0
 11
-14.70711131563385
 21
-14.95764830886761
 31
0.0
  0
LINE
  5
4FA
330
1F
100
AcDbEntity
  8
0
100
AcDbLine
 10
-14.51258049281312
 20
-14.93203784968417
 30
0.0
 11
-14.41698739125562
 21
-14.90974866907364
 31
0.0
  0
LINE
  5
4FB
330
1F
100
AcDbEntity
  8
0
100
AcDbLine
 10
-13.41939647142464
 20
-14.03488496273986
 30
0.0
 11
-13.38482056908436
 21
-13.94301899725195
 31
0.0
  0
LINE
  5
4FC
330
1F
100
AcDbEntity
  8
0
100
AcDbLine
 10
-32.96878461351046
 20
-14.40749179312546
 30
0.0
 11
-32.90147161906099
 21
-14.48468959331457
 31
0.0
  0
LINE
  5
4FD
330
1F
100
AcDbEntity
  8
0
100
AcDbLine
 10
-28.80455674745351
 20
-11.5208589195152
 30
0.0
 11
-26.14521694745351
 21
-8.8615189195152
 31
0.0
  0
LINE
  5
4FE
330
1F
100
AcDbEntity
  8
0
100
AcDbLine
 10
-14.14178287356243
 20
-14.80616903579435
 30
0.0
 11
-14.05521589279849
 21
-14.75989802457688
 31
0.0
  0
LINE
  5
4FF
330
1F
100
AcDbEntity
  8
0
100
AcDbLine
 10
-13.50617768166174
 20
-14.2108598421877
 30
0.0
 11
-13.45990666591163
 21
-14.12429286384651
 31
0.0
  0
LINE
  5
500
330
1F
100
AcDbEntity
  8
0
100
AcDbLine
 10
-13.30842736323784
 20
-13.55896442970653
 30
0.0
 11
-13.3052157474535
 21
-13.4608597195152
 31
0.0
  0
LINE
  5
501
330
1F
100
AcDbEntity
  8
0
100
AcDbLine
 10
-27.20587654745352
 20
-5.160858319515197
 30
0.0
 11
-27.00587654745351
 21
-4.960858319515197
 31
0.0
  0
LINE
  5
502
330
1F
100
AcDbEntity
  8
0
100
AcDbLine
 10
-13.67745610960182
 20
-14.44987860109876
 30
0.0
 11
-13.61518579826766
 21
-14.374002010743
 31
0.0
  0
LINE
  5
503
330
1F
100
AcDbEntity
  8
0
100
AcDbLine
 10
-32.30753706378947
 20
-14.87425128009141
 30
0.0
 11
-32.20991279870219
 21
-14.90523583175771
 31
0.0
  0
LINE
  5
504
330
1F
100
AcDbEntity
  8
0
100
AcDbLine
 10
-29.86521654745351
 20
-10.4601991195152
 30
0.0
 11
-27.20587654745352
 21
-7.8008591195152
 31
0.0
  0
LINE
  5
505
330
1F
100
AcDbEntity
  8
0
100
AcDbLine
 10
-27.94521694745351
 20
-14.9608591195152
 30
0.0
 11
-26.14521694745351
 21
-13.1608583195152
 31
0.0
  0
LINE
  5
506
330
1F
100
AcDbEntity
  8
0
100
AcDbLine
 10
-23.10521594745351
 20
-8.8615189195152
 30
0.0
 11
-20.46521654745351
 21
-8.8615189195152
 31
0.0
  0
LINE
  5
507
330
1F
100
AcDbEntity
  8
0
100
AcDbLine
 10
-13.81619712491931
 20
-14.58861960915179
 30
0.0
 11
-13.74455566202035
 21
-14.5215200604844
 31
0.0
  0
LINE
  5
508
330
1F
100
AcDbEntity
  8
0
100
AcDbLine
 10
-14.41698739125562
 20
-14.90974866907364
 30
0.0
 11
-14.32305674408848
 21
-14.88125512313014
 31
0.0
  0
LINE
  5
509
330
1F
100
AcDbEntity
  8
0
100
AcDbLine
 10
-23.50521594745351
 20
-1.060197519515195
 30
0.0
 11
-26.14521694745351
 21
-1.060197519515195
 31
0.0
  0
LINE
  5
50A
330
1F
100
AcDbEntity
  8
0
100
AcDbLine
 10
-23.10521594745351
 20
-1.060197519515195
 30
0.0
 11
-20.46521654745351
 21
-1.060197519515195
 31
0.0
  0
LINE
  5
50B
330
1F
100
AcDbEntity
  8
0
100
AcDbLine
 10
-21.8202915655404
 20
-3.475933937602088
 30
0.0
 11
-21.92058960387419
 21
-3.38199457344138
 31
0.0
  0
LINE
  5
50C
330
1F
100
AcDbEntity
  8
0
100
AcDbLine
 10
-13.31804845795811
 20
-13.65664904043951
 30
0.0
 11
-13.30842736323784
 21
-13.55896442970653
 31
0.0
  0
LINE
  5
50D
330
1F
100
AcDbEntity
  8
0
100
AcDbLine
 10
-16.74521534745352
 20
-10.4601991195152
 30
0.0
 11
-19.40455674745351
 21
-7.8008591195152
 31
0.0
  0
LINE
  5
50E
330
1F
100
AcDbEntity
  8
0
100
AcDbLine
 10
-21.31666248612775
 20
-4.285835378090666
 30
0.0
 11
-21.36506874440389
 21
-4.157223035011822
 31
0.0
  0
LINE
  5
50F
330
1F
100
AcDbEntity
  8
0
100
AcDbLine
 10
-21.22318154027953
 20
-4.686753289747847
 30
0.0
 11
-21.24556666244966
 21
-4.551168604263262
 31
0.0
  0
LINE
  5
510
330
1F
100
AcDbEntity
  8
0
100
AcDbLine
 10
-21.20971200908065
 20
-4.823511735051269
 30
0.0
 11
-21.22318154027953
 21
-4.686753289747847
 31
0.0
  0
LINE
  5
511
330
1F
100
AcDbEntity
  8
0
100
AcDbLine
 10
-21.2052157474535
 20
-4.960858319515197
 30
0.0
 11
-21.20971200908065
 21
-4.823511735051269
 31
0.0
  0
LINE
  5
512
330
1F
100
AcDbEntity
  8
0
100
AcDbLine
 10
-23.50521594745351
 20
-1.060197519515195
 30
0.0
 11
-23.3052159474535
 21
-1.2601975195152
 31
0.0
  0
LINE
  5
513
330
1F
100
AcDbEntity
  8
0
100
AcDbLine
 10
-23.10521594745351
 20
-1.060197519515195
 30
0.0
 11
-23.3052159474535
 21
-1.2601975195152
 31
0.0
  0
LINE
  5
514
330
1F
100
AcDbEntity
  8
0
100
AcDbLine
 10
-21.36506874440389
 20
-4.157223035011822
 30
0.0
 11
-21.42178301086031
 21
-4.032051981597554
 31
0.0
  0
LINE
  5
515
330
1F
100
AcDbEntity
  8
0
100
AcDbLine
 10
-19.40455674745351
 20
-2.120857319515195
 30
0.0
 11
-19.40455674745351
 21
-4.760858319515197
 31
0.0
  0
LINE
  5
516
330
1F
100
AcDbEntity
  8
0
100
AcDbLine
 10
-13.3052159474535
 20
-9.600859119515196
 30
0.0
 11
-15.10521594745351
 21
-7.8008591195152
 31
0.0
  0
LINE
  5
517
330
1F
100
AcDbEntity
  8
0
100
AcDbLine
 10
-13.3052157474535
 20
-13.4608597195152
 30
0.0
 11
-13.3052159474535
 21
-9.600859119515196
 31
0.0
  0
LINE
  5
518
330
1F
100
AcDbEntity
  8
0
100
AcDbLine
 10
-19.40455674745351
 20
-5.160858319515197
 30
0.0
 11
-19.60455674745352
 21
-4.960858319515197
 31
0.0
  0
LINE
  5
519
330
1F
100
AcDbEntity
  8
0
100
AcDbLine
 10
-13.3340378326069
 20
-13.7534952511863
 30
0.0
 11
-13.31804845795811
 21
-13.65664904043951
 31
0.0
  0
LINE
  5
51A
330
1F
100
AcDbEntity
  8
0
100
AcDbLine
 10
-21.27677151906129
 20
-4.417338273036092
 30
0.0
 11
-21.31666248612775
 21
-4.285835378090666
 31
0.0
  0
LINE
  5
51B
330
1F
100
AcDbEntity
  8
0
100
AcDbLine
 10
-21.24556666244966
 20
-4.551168604263262
 30
0.0
 11
-21.27677151906129
 21
-4.417338273036092
 31
0.0
  0
LINE
  5
51C
330
1F
100
AcDbEntity
  8
0
100
AcDbLine
 10
-23.33863527728456
 20
-4.98283528496905
 30
0.0
 11
-23.28886327077716
 21
-4.950105380174781
 31
0.0
  0
LINE
  5
51D
330
1F
100
AcDbEntity
  8
0
100
AcDbLine
 10
-23.28911288752099
 20
-4.982325140651999
 30
0.0
 11
-23.3052159474535
 21
-7.0608585195152
 31
0.0
  0
LINE
  5
51E
330
1F
100
AcDbEntity
  8
0
100
AcDbLine
 10
-23.28886327077716
 20
-4.950105380174781
 30
0.0
 11
-23.28911288752099
 21
-4.982325140651999
 31
0.0
  0
LINE
  5
51F
330
1F
100
AcDbEntity
  8
0
100
AcDbLine
 10
-23.28911288752099
 20
-4.982325140651999
 30
0.0
 11
-23.33863527728456
 21
-4.98283528496905
 31
0.0
  0
LINE
  5
520
330
1F
100
AcDbEntity
  8
0
100
AcDbLine
 10
-23.33863527728456
 20
-4.98283528496905
 30
0.0
 11
-25.4052161474535
 21
-4.960858319515191
 31
0.0
  0
LINE
  5
521
330
1F
100
AcDbEntity
  8
0
100
AcDbLine
 10
-24.88407969352732
 20
-6.3454846630945
 30
0.0
 11
-24.79014032936661
 21
-6.445782701428294
 31
0.0
  0
LINE
  5
522
330
1F
100
AcDbEntity
  8
0
100
AcDbLine
 10
-25.1886488840467
 20
-5.889664657432829
 30
0.0
 11
-25.12386946860591
 21
-6.010858419515188
 31
0.0
  0
LINE
  5
523
330
1F
100
AcDbEntity
  8
0
100
AcDbLine
 10
-24.97125812073577
 20
-6.239257442185791
 30
0.0
 11
-24.88407969352732
 21
-6.3454846630945
 31
0.0
  0
LINE
  5
524
330
1F
100
AcDbEntity
  8
0
100
AcDbLine
 10
-25.12386946860591
 20
-6.010858419515188
 30
0.0
 11
-25.05983174745352
 21
-6.114688319515192
 31
0.0
  0
LINE
  5
525
330
1F
100
AcDbEntity
  8
0
100
AcDbLine
 10
-25.05983174745352
 20
-6.114688319515192
 30
0.0
 11
-24.97125812073577
 21
-6.239257442185791
 31
0.0
  0
LINE
  5
526
330
1F
100
AcDbEntity
  8
0
100
AcDbLine
 10
-25.05983174745352
 20
-6.114688319515192
 30
0.0
 11
-23.33863527728456
 21
-4.98283528496905
 31
0.0
  0
LINE
  5
527
330
1F
100
AcDbEntity
  8
0
100
AcDbLine
 10
-21.72635220137969
 20
-3.576231975935888
 30
0.0
 11
-21.8202915655404
 21
-3.475933937602088
 31
0.0
  0
LINE
  5
528
330
1F
100
AcDbEntity
  8
0
100
AcDbLine
 10
-21.42178301086031
 20
-4.032051981597554
 30
0.0
 11
-21.4865624263011
 21
-3.910858219515194
 31
0.0
  0
LINE
  5
529
330
1F
100
AcDbEntity
  8
0
100
AcDbLine
 10
-21.63917377417124
 20
-3.682459196844597
 30
0.0
 11
-21.72635220137969
 21
-3.576231975935888
 31
0.0
  0
LINE
  5
52A
330
1F
100
AcDbEntity
  8
0
100
AcDbLine
 10
-21.4865624263011
 20
-3.910858219515194
 30
0.0
 11
-21.55059854745351
 21
-3.807028319515196
 31
0.0
  0
LINE
  5
52B
330
1F
100
AcDbEntity
  8
0
100
AcDbLine
 10
-21.55059854745351
 20
-3.807028319515196
 30
0.0
 11
-21.63917377417124
 21
-3.682459196844597
 31
0.0
  0
LINE
  5
52C
330
1F
100
AcDbEntity
  8
0
100
AcDbLine
 10
-23.28886327077716
 20
-4.950105380174781
 30
0.0
 11
-21.55059854745351
 21
-3.807028319515196
 31
0.0
  0
LINE
  5
52D
330
1F
100
AcDbEntity
  8
0
100
AcDbLine
 10
-33.30521754745351
 20
-0.3208573195151981
 30
0.0
 11
-33.30521754745351
 21
10.39914328048481
 31
0.0
  0
LINE
  5
52E
330
1F
100
AcDbEntity
  8
0
100
AcDbLine
 10
-29.8771102161743
 20
0.5384810804848046
 30
0.0
 11
-27.20587654745352
 21
-2.120857319515195
 31
0.0
  0
LINE
  5
52F
330
1F
100
AcDbEntity
  8
0
100
AcDbLine
 10
-31.50521594745351
 20
0.5384810804848046
 30
0.0
 11
-29.8771102161743
 21
0.5384810804848046
 31
0.0
  0
LINE
  5
530
330
1F
100
AcDbEntity
  8
0
100
AcDbLine
 10
-31.50521594745351
 20
9.539803280484813
 30
0.0
 11
-29.86521654745351
 21
9.539803280484813
 31
0.0
  0
LINE
  5
531
330
1F
100
AcDbEntity
  8
0
100
AcDbLine
 10
-26.14521694745351
 20
-1.060197519515195
 30
0.0
 11
-28.80455674745351
 21
1.599140880484804
 31
0.0
  0
LINE
  5
532
330
1F
100
AcDbEntity
  8
0
100
AcDbLine
 10
-28.80455674745351
 20
1.599140880484804
 30
0.0
 11
-28.92081953881914
 21
1.705033038676349
 31
0.0
  0
LINE
  5
533
330
1F
100
AcDbEntity
  8
0
100
AcDbLine
 10
-28.92081953881914
 20
1.705033038676349
 30
0.0
 11
-28.96501004765842
 21
1.759594096219644
 31
0.0
  0
LINE
  5
534
330
1F
100
AcDbEntity
  8
0
100
AcDbLine
 10
-28.96501004765842
 20
1.759594096219644
 30
0.0
 11
-29.8771102161743
 21
2.671693784563629
 31
0.0
  0
LINE
  5
535
330
1F
100
AcDbEntity
  8
0
100
AcDbLine
 10
-31.5071326008635
 20
2.671693784563629
 30
0.0
 11
-31.51790633441431
 21
7.418483600716161
 31
0.0
  0
LINE
  5
536
330
1F
100
AcDbEntity
  8
0
100
AcDbLine
 10
-29.8771102161743
 20
2.671693784563629
 30
0.0
 11
-31.5071326008635
 21
2.671693784563629
 31
0.0
  0
LINE
  5
537
330
1F
100
AcDbEntity
  8
0
100
AcDbLine
 10
-27.74389702722216
 20
9.539803280484813
 30
0.0
 11
-26.14521694745351
 21
11.13848348048481
 31
0.0
  0
LINE
  5
538
330
1F
100
AcDbEntity
  8
0
100
AcDbLine
 10
-27.74389702722216
 20
9.539803280484813
 30
0.0
 11
-28.80455674745351
 21
8.479143480484813
 31
0.0
  0
LINE
  5
539
330
1F
100
AcDbEntity
  8
0
100
AcDbLine
 10
-28.80455674745351
 20
8.479143480484813
 30
0.0
 11
-28.92081951946008
 21
8.37325162101607
 31
0.0
  0
LINE
  5
53A
330
1F
100
AcDbEntity
  8
0
100
AcDbLine
 10
-28.92081951946008
 20
8.37325162101607
 30
0.0
 11
-29.86521654745351
 21
7.418483600716161
 31
0.0
  0
LINE
  5
53B
330
1F
100
AcDbEntity
  8
0
100
AcDbLine
 10
-31.51790633441431
 20
7.418483600716161
 30
0.0
 11
-29.86521654745351
 21
7.418483600716161
 31
0.0
  0
LINE
  5
53C
330
1F
100
AcDbEntity
  8
0
100
AcDbLine
 10
-13.30521574745352
 20
-0.3208573195151629
 30
0.0
 11
-15.10521734745353
 21
-2.120857319515212
 31
0.0
  0
LINE
  5
53D
330
1F
100
AcDbEntity
  8
0
100
AcDbLine
 10
-17.6454232472486
 20
8.318691864749983
 30
0.0
 11
-16.73332307873272
 21
7.40659217640599
 31
0.0
  0
LINE
  5
53E
330
1F
100
AcDbEntity
  8
0
100
AcDbLine
 10
-15.10330069404353
 20
7.406592176405979
 30
0.0
 11
-15.09252696049271
 21
2.659802360253462
 31
0.0
  0
LINE
  5
53F
330
1F
100
AcDbEntity
  8
0
100
AcDbLine
 10
-16.73332307873271
 20
9.539804880484805
 30
0.0
 11
-19.40455674745351
 21
12.19914328048481
 31
0.0
  0
LINE
  5
540
330
1F
100
AcDbEntity
  8
0
100
AcDbLine
 10
-18.86653626768488
 20
0.5384826804848012
 30
0.0
 11
-20.46521654745351
 21
-1.060197519515195
 31
0.0
  0
LINE
  5
541
330
1F
100
AcDbEntity
  8
0
100
AcDbLine
 10
-16.74521674745353
 20
0.5384826804848012
 30
0.0
 11
-19.40455674745351
 21
-2.120857319515195
 31
0.0
  0
LINE
  5
542
330
1F
100
AcDbEntity
  8
0
100
AcDbLine
 10
-17.80587654745353
 20
1.599142480484801
 30
0.0
 11
-17.68961377544693
 21
1.705034339953574
 31
0.0
  0
LINE
  5
543
330
1F
100
AcDbEntity
  8
0
100
AcDbLine
 10
-15.10521734745351
 20
0.5384826804848286
 30
0.0
 11
-16.74521674745353
 21
0.5384826804848012
 31
0.0
  0
LINE
  5
544
330
1F
100
AcDbEntity
  8
0
100
AcDbLine
 10
-17.68961375608789
 20
8.373252922293252
 30
0.0
 11
-17.6454232472486
 21
8.318691864749983
 31
0.0
  0
LINE
  5
545
330
1F
100
AcDbEntity
  8
0
100
AcDbLine
 10
-16.73332307873272
 20
7.40659217640599
 30
0.0
 11
-15.10330069404353
 21
7.406592176405979
 31
0.0
  0
LINE
  5
546
330
1F
100
AcDbEntity
  8
0
100
AcDbLine
 10
-17.80587654745353
 20
8.479145080484797
 30
0.0
 11
-17.68961375608789
 21
8.373252922293252
 31
0.0
  0
LINE
  5
547
330
1F
100
AcDbEntity
  8
0
100
AcDbLine
 10
-13.30521574745353
 20
10.3991432804848
 30
0.0
 11
-15.10521734745352
 21
12.1991432804848
 31
0.0
  0
LINE
  5
548
330
1F
100
AcDbEntity
  8
0
100
AcDbLine
 10
-15.10521734745351
 20
0.5384826804848286
 30
0.0
 11
-15.10521734745353
 21
-2.120857319515212
 31
0.0
  0
LINE
  5
549
330
1F
100
AcDbEntity
  8
0
100
AcDbLine
 10
-20.46521654745351
 20
11.13848348048481
 30
0.0
 11
-17.80587654745353
 21
8.479145080484797
 31
0.0
  0
LINE
  5
54A
330
1F
100
AcDbEntity
  8
0
100
AcDbLine
 10
-15.09252696049271
 20
2.659802360253462
 30
0.0
 11
-16.7452167474535
 21
2.659802360253463
 31
0.0
  0
LINE
  5
54B
330
1F
100
AcDbEntity
  8
0
100
AcDbLine
 10
-17.68961377544693
 20
1.705034339953574
 30
0.0
 11
-16.7452167474535
 21
2.659802360253463
 31
0.0
  0
LINE
  5
54C
330
1F
100
AcDbEntity
  8
0
100
AcDbLine
 10
-15.10521734745351
 20
9.53980488048481
 30
0.0
 11
-15.10521734745352
 21
12.1991432804848
 31
0.0
  0
LINE
  5
54D
330
1F
100
AcDbEntity
  8
0
100
AcDbLine
 10
-15.10521734745351
 20
9.53980488048481
 30
0.0
 11
-16.73332307873271
 21
9.539804880484805
 31
0.0
  0
LINE
  5
54E
330
1F
100
AcDbEntity
  8
0
100
AcDbLine
 10
-18.86653626768488
 20
0.5384826804848012
 30
0.0
 11
-17.80587654745353
 21
1.599142480484801
 31
0.0
  0
LINE
  5
54F
330
1F
100
AcDbEntity
  8
0
100
AcDbLine
 10
-13.30521574745353
 20
10.3991432804848
 30
0.0
 11
-13.30521574745352
 21
-0.3208573195151629
 31
0.0
  0
LINE
  5
550
330
1F
100
AcDbEntity
  8
0
100
AcDbLine
 10
-14.50332057927318
 20
-14.95764770886759
 30
0.0
 11
-13.18103305277056
 21
-14.95764770886759
 31
0.0
  0
LINE
  5
551
330
1F
100
AcDbEntity
  8
0
100
AcDbLine
 10
-13.18103305277056
 20
-14.95764770886759
 30
0.0
 11
-13.18103305277056
 21
-20.46306730391436
 31
0.0
  0
LINE
  5
552
330
1F
100
AcDbEntity
  8
0
100
AcDbLine
 10
-13.18103305277056
 20
-14.95764770886759
 30
0.0
 11
-6.359439379273169
 21
-14.95764770886759
 31
0.0
  0
LINE
  5
553
330
1F
100
AcDbEntity
  8
0
100
AcDbLine
 10
-6.652135869584322
 20
5.293561241173871
 30
0.0
 11
-6.825623355215577
 21
5.293560475470992
 31
0.0
  0
LINE
  5
554
330
1F
100
AcDbEntity
  8
0
100
AcDbLine
 10
-7.337006143273909
 20
5.293559921551005
 30
0.0
 11
-7.337005818643603
 21
5.201772965746964
 31
0.0
  0
LINE
  5
555
330
1F
100
AcDbEntity
  8
0
100
AcDbLine
 10
-6.6521354136063
 20
5.20278241838819
 30
0.0
 11
-6.652135869584322
 21
5.293561241173871
 31
0.0
  0
LINE
  5
556
330
1F
100
AcDbEntity
  8
0
100
AcDbLine
 10
-6.825622789349293
 20
5.202781819791817
 30
0.0
 11
-6.6521354136063
 21
5.20278241838819
 31
0.0
  0
LINE
  5
557
330
1F
100
AcDbEntity
  8
0
100
AcDbLine
 10
-6.825623258464811
 20
4.895145236757554
 30
0.0
 11
-6.825622789349293
 21
5.202781819791817
 31
0.0
  0
LINE
  5
558
330
1F
100
AcDbEntity
  8
0
100
AcDbLine
 10
-6.906315243376385
 20
5.202781524366227
 30
0.0
 11
-6.906315157410141
 21
4.979871149847957
 31
0.0
  0
LINE
  5
559
330
1F
100
AcDbEntity
  8
0
100
AcDbLine
 10
-6.914383823580749
 20
4.895145362713057
 30
0.0
 11
-6.825623258464811
 21
4.895145236757554
 31
0.0
  0
LINE
  5
55A
330
1F
100
AcDbEntity
  8
0
100
AcDbLine
 10
-6.906315157410141
 20
4.979871149847957
 30
0.0
 11
-7.22000444068031
 21
5.202780982421904
 31
0.0
  0
LINE
  5
55B
330
1F
100
AcDbEntity
  8
0
100
AcDbLine
 10
-6.825623355215577
 20
5.293560475470992
 30
0.0
 11
-6.825623258464805
 21
5.393415542363912
 31
0.0
  0
LINE
  5
55C
330
1F
100
AcDbEntity
  8
0
100
AcDbLine
 10
-6.906315712491892
 20
5.393415246938324
 30
0.0
 11
-6.906315532247953
 21
5.29356023726366
 31
0.0
  0
LINE
  5
55D
330
1F
100
AcDbEntity
  8
0
100
AcDbLine
 10
-6.906315532247953
 20
5.29356023726366
 30
0.0
 11
-7.337006143273909
 21
5.293559921551005
 31
0.0
  0
LINE
  5
55E
330
1F
100
AcDbEntity
  8
0
100
AcDbLine
 10
-6.825623258464805
 20
5.393415542363912
 30
0.0
 11
-6.906315712491892
 21
5.393415246938324
 31
0.0
  0
LINE
  5
55F
330
1F
100
AcDbEntity
  8
0
100
AcDbLine
 10
-7.22000444068031
 20
5.202780982421904
 30
0.0
 11
-6.906315243376385
 21
5.202781524366227
 31
0.0
  0
LINE
  5
560
330
1F
100
AcDbEntity
  8
0
100
AcDbLine
 10
-7.337005818643603
 20
5.201772965746964
 30
0.0
 11
-6.914383823580749
 21
4.895145362713057
 31
0.0
  0
ENDSEC
  0
SECTION
  2
OBJECTS
  0
DICTIONARY
  5
C
330
0
100
AcDbDictionary
  3
ACAD_GROUP
350
D
  3
ACAD_LAYOUT
350
1A
  3
ACAD_MATERIAL
350
43
  3
ACAD_MLEADERSTYLE
350
583
  3
ACAD_MLINESTYLE
350
17
  3
ACAD_PLOTSETTINGS
350
19
  3
ACAD_SCALELIST
350
47
  3
ACAD_VISUALSTYLE
350
2A
  3
ACDBHEADERROUNDTRIPXREC
350
561
  3
ACDBVARIABLEDICTIONARY
350
581
  0
DICTIONARY
  5
588
330
8
100
AcDbDictionary
280
     1
  3
ACAD_XREC_ROUNDTRIP
360
589
  0
DICTIONARY
  5
D
102
{ACAD_REACTORS
330
C
102
}
330
C
100
AcDbDictionary
  0
DICTIONARY
  5
1A
102
{ACAD_REACTORS
330
C
102
}
330
C
100
AcDbDictionary
  0
DICTIONARY
  5
43
102
{ACAD_REACTORS
330
C
102
}
330
C
100
AcDbDictionary
  3
BYBLOCK
350
45
  3
BYLAYER
350
44
  3
GLOBAL
350
46
  0
DICTIONARY
  5
583
102
{ACAD_REACTORS
330
C
102
}
330
C
100
AcDbDictionary
  0
DICTIONARY
  5
17
102
{ACAD_REACTORS
330
C
102
}
330
C
100
AcDbDictionary
  3
STANDARD
350
18
  0
DICTIONARY
  5
19
102
{ACAD_REACTORS
330
C
102
}
330
C
100
AcDbDictionary
  0
DICTIONARY
  5
47
102
{ACAD_REACTORS
330
C
102
}
330
C
100
AcDbDictionary
  3
A0
350
48
  3
A1
350
49
  3
A2
350
4A
  3
A3
350
4B
  3
A4
350
4C
  3
A5
350
4D
  3
A6
350
4E
  3
A7
350
4F
  3
A8
350
50
  3
A9
350
51
  3
B0
350
52
  3
B1
350
53
  3
B2
350
54
  3
B3
350
55
  3
B4
350
56
  3
B5
350
57
  3
B6
350
58
  3
B7
350
59
  3
B8
350
5A
  3
B9
350
5B
  3
C0
350
5C
  3
C1
350
5D
  3
C2
350
5E
  3
C3
350
5F
  3
C4
350
60
  3
C5
350
61
  3
C6
350
62
  3
C7
350
63
  3
C8
350
64
  3
C9
350
65
  3
D0
350
66
  3
D1
350
67
  3
D2
350
68
  0
DICTIONARY
  5
2A
102
{ACAD_REACTORS
330
C
102
}
330
C
100
AcDbDictionary
  3
2DWIREFRAME
350
2F
  3
BASIC
350
32
  3
BRIGHTEN
350
36
  3
COLORCHANGE
350
3A
  3
CONCEPTUAL
350
34
  3
DIM
350
35
  3
EDGECOLOROFF
350
3D
  3
FACEPATTERN
350
39
  3
FLAT
350
2B
  3
FLATWITHEDGES
350
2C
  3
GOURAUD
350
2D
  3
GOURAUDWITHEDGES
350
2E
  3
HIDDEN
350
31
  3
JITTEROFF
350
3B
  3
LINEPATTERN
350
38
  3
OVERHANGOFF
350
3C
  3
REALISTIC
350
33
  3
SHADED
350
42
  3
SHADED_WITH_EDGES
350
41
  3
SHADES_OF_GRAY
350
3E
  3
SKETCHY
350
3F
  3
THICKEN
350
37
  3
WIREFRAME
350
30
  3
X-RAY
350
40
  0
DICTIONARY
  5
561
102
{ACAD_REACTORS
330
C
102
}
330
C
100
AcDbDictionary
  3
CEPSNTYPE
350
56A
  3
DIMSTYLEDATA
350
580
  3
FINGERPRINTGUID
350
56B
  3
HYPERLINKBASE
350
564
  3
INSUNITS
350
569
  3
LAYOUTDICT
350
566
  3
LWETCUNION
350
568
  3
PLOTSETDICT
350
567
  3
PSVPSCALE
350
56D
  3
PUCSBASE
350
570
  3
PUCSORGBACK
350
576
  3
PUCSORGBOTTOM
350
572
  3
PUCSORGFRONT
350
575
  3
PUCSORGLEFT
350
573
  3
PUCSORGRIGHT
350
574
  3
PUCSORGTOP
350
571
  3
PUCSORTHOREF
350
56E
  3
PUCSORTHOVIEW
350
56F
  3
STYLESHEET
350
565
  3
TSTACKALIGN
350
562
  3
TSTACKSIZE
350
563
  3
UCSBASE
350
579
  3
UCSORGBACK
350
57F
  3
UCSORGBOTTOM
350
57B
  3
UCSORGFRONT
350
57E
  3
UCSORGLEFT
350
57C
  3
UCSORGRIGHT
350
57D
  3
UCSORGTOP
350
57A
  3
UCSORTHOREF
350
577
  3
UCSORTHOVIEW
350
578
  3
VERSIONGUID
350
56C
  0
DICTIONARY
  5
581
102
{ACAD_REACTORS
330
C
102
}
330
C
100
AcDbDictionary
  3
CANNOSCALE
350
58A
  3
DIMASSOC
350
586
  3
HIDETEXT
350
587
  3
MSLTSCALE
350
58B
  0
XRECORD
  5
589
102
{ACAD_REACTORS
330
588
102
}
330
588
100
AcDbXrecord
102
VTR_0.000_0.000_1.000_1.000_GRIDDISPLAY
 70
     3
102
VTR_0.000_0.000_1.000_1.000_GRIDMAJOR
 70
     5
102
VTR_0.000_0.000_1.000_1.000_DEFAULTLIGHTING
280
     1
102
VTR_0.000_0.000_1.000_1.000_DEFAULTLIGHTINGTYPE
 70
     1
102
VTR_0.000_0.000_1.000_1.000_BRIGHTNESS
141
0.0
102
VTR_0.000_0.000_1.000_1.000_CONTRAST
142
0.0
  0
MATERIAL
  5
45
102
{ACAD_REACTORS
330
43
102
}
102
{ACAD_XDICTIONARY
360
58E
102
}
330
43
100
AcDbMaterial
  1
BYBLOCK
  0
MATERIAL
  5
44
102
{ACAD_REACTORS
330
43
102
}
102
{ACAD_XDICTIONARY
360
58C
102
}
330
43
100
AcDbMaterial
  1
BYLAYER
  0
MATERIAL
  5
46
102
{ACAD_REACTORS
330
43
102
}
102
{ACAD_XDICTIONARY
360
590
102
}
330
43
100
AcDbMaterial
  1
GLOBAL
  0
MLINESTYLE
  5
18
102
{ACAD_REACTORS
330
17
102
}
330
17
100
AcDbMlineStyle
  2
Standard
 70
     0
  3

 62
   256
 51
90.0
 52
90.0
 71
     2
 49
0.5
 62
   256
  6
BYLAYER
 49
-0.5
 62
   256
  6
BYLAYER
  0
ACAD_PROXY_OBJECT
  5
48
102
{ACAD_REACTORS
330
47
102
}
330
47
100
AcDbProxyObject
 90
      499
 91
      503
 93
       41
310
903313A31580
  0
ACAD_PROXY_OBJECT
  5
49
102
{ACAD_REACTORS
330
47
102
}
330
47
100
AcDbProxyObject
 90
      499
 91
      503
 93
      105
310
903313A324000000000000004000
  0
ACAD_PROXY_OBJECT
  5
4A
102
{ACAD_REACTORS
330
47
102
}
330
47
100
AcDbProxyObject
 90
      499
 91
      503
 93
      105
310
903313A344000000000000104000
  0
ACAD_PROXY_OBJECT
  5
4B
102
{ACAD_REACTORS
330
47
102
}
330
47
100
AcDbProxyObject
 90
      499
 91
      503
 93
      105
310
903313A354000000000000144000
  0
ACAD_PROXY_OBJECT
  5
4C
102
{ACAD_REACTORS
330
47
102
}
330
47
100
AcDbProxyObject
 90
      499
 91
      503
 93
      105
310
903313A384000000000000204000
  0
ACAD_PROXY_OBJECT
  5
4D
102
{ACAD_REACTORS
330
47
102
}
330
47
100
AcDbProxyObject
 90
      499
 91
      503
 93
      113
310
904313A31304000000000000244000
  0
ACAD_PROXY_OBJECT
  5
4E
102
{ACAD_REACTORS
330
47
102
}
330
47
100
AcDbProxyObject
 90
      499
 91
      503
 93
      113
310
904313A31364000000000000304000
  0
ACAD_PROXY_OBJECT
  5
4F
102
{ACAD_REACTORS
330
47
102
}
330
47
100
AcDbProxyObject
 90
      499
 91
      503
 93
      113
310
904313A32304000000000000344000
  0
ACAD_PROXY_OBJECT
  5
50
102
{ACAD_REACTORS
330
47
102
}
330
47
100
AcDbProxyObject
 90
      499
 91
      503
 93
      113
310
904313A333040000000000003E4000
  0
ACAD_PROXY_OBJECT
  5
51
102
{ACAD_REACTORS
330
47
102
}
330
47
100
AcDbProxyObject
 90
      499
 91
      503
 93
      113
310
904313A34304000000000000444000
  0
ACAD_PROXY_OBJECT
  5
52
102
{ACAD_REACTORS
330
47
102
}
330
47
100
AcDbProxyObject
 90
      499
 91
      503
 93
      113
310
904313A35304000000000000494000
  0
ACAD_PROXY_OBJECT
  5
53
102
{ACAD_REACTORS
330
47
102
}
330
47
100
AcDbProxyObject
 90
      499
 91
      503
 93
      121
310
905313A3130304000000000000594000
  0
ACAD_PROXY_OBJECT
  5
54
102
{ACAD_REACTORS
330
47
102
}
330
47
100
AcDbProxyObject
 90
      499
 91
      503
 93
      105
310
903323A310000000000000010100
  0
ACAD_PROXY_OBJECT
  5
55
102
{ACAD_REACTORS
330
47
102
}
330
47
100
AcDbProxyObject
 90
      499
 91
      503
 93
      105
310
903343A310000000000000410100
  0
ACAD_PROXY_OBJECT
  5
56
102
{ACAD_REACTORS
330
47
102
}
330
47
100
AcDbProxyObject
 90
      499
 91
      503
 93
      105
310
903383A310000000000000810100
  0
ACAD_PROXY_OBJECT
  5
57
102
{ACAD_REACTORS
330
47
102
}
330
47
100
AcDbProxyObject
 90
      499
 91
      503
 93
      113
310
90431303A310000000000000910100
  0
ACAD_PROXY_OBJECT
  5
58
102
{ACAD_REACTORS
330
47
102
}
330
47
100
AcDbProxyObject
 90
      499
 91
      503
 93
      121
310
9053130303A310000000000001650100
  0
ACAD_PROXY_OBJECT
  5
59
102
{ACAD_REACTORS
330
47
102
}
330
47
100
AcDbProxyObject
 90
      499
 91
      503
 93
      257
310
90E312F31323822203D2031272D3022000000000000200FC000000000000284000
  0
ACAD_PROXY_OBJECT
  5
5A
102
{ACAD_REACTORS
330
47
102
}
330
47
100
AcDbProxyObject
 90
      499
 91
      503
 93
      249
310
90D312F363422203D2031272D3022000000000000240FC000000000000284000
  0
ACAD_PROXY_OBJECT
  5
5B
102
{ACAD_REACTORS
330
47
102
}
330
47
100
AcDbProxyObject
 90
      499
 91
      503
 93
      249
310
90D312F333222203D2031272D3022000000000000280FC000000000000284000
  0
ACAD_PROXY_OBJECT
  5
5C
102
{ACAD_REACTORS
330
47
102
}
330
47
100
AcDbProxyObject
 90
      499
 91
      503
 93
      249
310
90D312F313622203D2031272D30220000000000002C0FC000000000000284000
  0
ACAD_PROXY_OBJECT
  5
5D
102
{ACAD_REACTORS
330
47
102
}
330
47
100
AcDbProxyObject
 90
      499
 91
      503
 93
      249
310
90D332F333222203D2031272D30220000000000002E0FC000000000000284000
  0
ACAD_PROXY_OBJECT
  5
5E
102
{ACAD_REACTORS
330
47
102
}
330
47
100
AcDbProxyObject
 90
      499
 91
      503
 93
      241
310
90C312F3822203D2031272D3022000000000000300FC000000000000284000
  0
ACAD_PROXY_OBJECT
  5
5F
102
{ACAD_REACTORS
330
47
102
}
330
47
100
AcDbProxyObject
 90
      499
 91
      503
 93
      249
310
90D332F313622203D2031272D3022000000000000320FC000000000000284000
  0
ACAD_PROXY_OBJECT
  5
60
102
{ACAD_REACTORS
330
47
102
}
330
47
100
AcDbProxyObject
 90
      499
 91
      503
 93
      241
310
90C312F3422203D2031272D3022000000000000340FC000000000000284000
  0
ACAD_PROXY_OBJECT
  5
61
102
{ACAD_REACTORS
330
47
102
}
330
47
100
AcDbProxyObject
 90
      499
 91
      503
 93
      241
310
90C332F3822203D2031272D3022000000000000360FC000000000000284000
  0
ACAD_PROXY_OBJECT
  5
62
102
{ACAD_REACTORS
330
47
102
}
330
47
100
AcDbProxyObject
 90
      499
 91
      503
 93
      241
310
90C312F3222203D2031272D3022000000000000380FC000000000000284000
  0
ACAD_PROXY_OBJECT
  5
63
102
{ACAD_REACTORS
330
47
102
}
330
47
100
AcDbProxyObject
 90
      499
 91
      503
 93
      241
310
90C332F3422203D2031272D30220000000000003A0FC000000000000284000
  0
ACAD_PROXY_OBJECT
  5
64
102
{ACAD_REACTORS
330
47
102
}
330
47
100
AcDbProxyObject
 90
      499
 91
      503
 93
      161
310
90A3122203D2031272D30224000000000000284000
  0
ACAD_PROXY_OBJECT
  5
65
102
{ACAD_REACTORS
330
47
102
}
330
47
100
AcDbProxyObject
 90
      499
 91
      503
 93
      257
310
90E312D312F3222203D2031272D30220000000000003E0FC000000000000284000
  0
ACAD_PROXY_OBJECT
  5
66
102
{ACAD_REACTORS
330
47
102
}
330
47
100
AcDbProxyObject
 90
      499
 91
      503
 93
      225
310
90A3322203D2031272D302200000000000002100000000000000284000
  0
ACAD_PROXY_OBJECT
  5
67
102
{ACAD_REACTORS
330
47
102
}
330
47
100
AcDbProxyObject
 90
      499
 91
      503
 93
      225
310
90A3622203D2031272D302200000000000006100000000000000284000
  0
ACAD_PROXY_OBJECT
  5
68
102
{ACAD_REACTORS
330
47
102
}
330
47
100
AcDbProxyObject
 90
      499
 91
      503
 93
      249
310
90D31272D3022203D2031272D30220000000000000A100000000000000284000
  0
ACAD_PROXY_OBJECT
  5
2F
102
{ACAD_REACTORS
330
2A
102
}
330
2A
100
AcDbProxyObject
 90
      499
 91
      501
 93
      436
310
42CC9915DA5C99599C985B595049028333333333333E33F0000000000000F90107901411070040501600405405064090741402480A0340
1001
ACAD
1000
AcDbSavedByObjectVersion
1070
     0
  0
ACAD_PROXY_OBJECT
  5
32
102
{ACAD_REACTORS
330
2A
102
}
330
2A
100
AcDbProxyObject
 90
      499
 91
      501
 93
      388
310
4150985CDA58D07406404333333333333E33F0000000000000F90107A41107004050150841D405064090741402480A0350
1001
ACAD
1000
AcDbSavedByObjectVersion
1070
     0
  0
ACAD_PROXY_OBJECT
  5
36
102
{ACAD_REACTORS
330
2A
102
}
330
2A
100
AcDbProxyObject
 90
      499
 91
      501
 93
      428
310
42109C9A59DA1D195B90C409028333333333333E33F0000000000000F9010790141107004050150841D405064090741402480A029950
1001
ACAD
1000
AcDbSavedByObjectVersion
1070
     0
  0
ACAD_PROXY_OBJECT
  5
3A
102
{ACAD_REACTORS
330
2A
102
}
330
2A
100
AcDbProxyObject
 90
      499
 91
      501
 93
      452
310
42D0DBDB1BDC90DA185B99D95104090240C333333333333E33F0000000000000F90108901411070040501508421405064090741402480A0350
1001
ACAD
1000
AcDbSavedByObjectVersion
1070
     0
  0
ACAD_PROXY_OBJECT
  5
34
102
{ACAD_REACTORS
330
2A
102
}
330
2A
100
AcDbProxyObject
 90
      499
 91
      501
 93
      500
310
4290DBDB98D95C1D1D585B10940D028333333333333E33F0000000000000F90107902409070040501000000000018199010841D405064090740C02480A0340
1001
ACAD
1000
AcDbSavedByObjectVersion
1070
     0
  0
ACAD_PROXY_OBJECT
  5
35
102
{ACAD_REACTORS
330
2A
102
}
330
2A
100
AcDbProxyObject
 90
      499
 91
      501
 93
      412
310
40D11A5B50B409028333333333333E33F0000000000000F9010790141107004050150841D405064090741402480A02677FFFFFD0
1001
ACAD
1000
AcDbSavedByObjectVersion
1070
     0
  0
ACAD_PROXY_OBJECT
  5
3D
102
{ACAD_REACTORS
330
2A
102
}
330
2A
100
AcDbProxyObject
 90
      499
 91
      501
 93
      452
310
43115919D950DBDB1BDC93D999916409028333333333333E33F0000000000000F9010790141107004050150841D405064090741402480A0350
1001
ACAD
1000
AcDbSavedByObjectVersion
1070
     0
  0
ACAD_PROXY_OBJECT
  5
39
102
{ACAD_REACTORS
330
2A
102
}
330
2A
100
AcDbProxyObject
 90
      499
 91
      501
 93
      444
310
42D19858D95C185D1D195C9B90F409028333333333333E33F0000000000000F9010790141107004050150841D405064090741402480A0350
1001
ACAD
1000
AcDbSavedByObjectVersion
1070
     0
  0
ACAD_PROXY_OBJECT
  5
2B
102
{ACAD_REACTORS
330
2A
102
}
330
2A
100
AcDbProxyObject
 90
      499
 91
      501
 93
      380
310
41119B185D240901404333333333333E33F0000000000000F9010740A907004050150841D405064090741402480A1B50
1001
ACAD
1000
AcDbSavedByObjectVersion
1070
     0
  0
ACAD_PROXY_OBJECT
  5
2C
102
{ACAD_REACTORS
330
2A
102
}
330
2A
100
AcDbProxyObject
 90
      499
 91
      501
 93
      468
310
43519B185D15DA5D1A115919D95CD0140901404333333333333E33F0000000000000F90107409019070040501600405405064090741402480A1B50
1001
ACAD
1000
AcDbSavedByObjectVersion
1070
     0
  0
ACAD_PROXY_OBJECT
  5
2D
102
{ACAD_REACTORS
330
2A
102
}
330
2A
100
AcDbProxyObject
 90
      499
 91
      501
 93
      404
310
41D1DBDD5C985D5910240902404333333333333E33F0000000000000F9010740A9070040501641D405064090741402480A1B50
1001
ACAD
1000
AcDbSavedByObjectVersion
1070
     0
  0
ACAD_PROXY_OBJECT
  5
2E
102
{ACAD_REACTORS
330
2A
102
}
330
2A
100
AcDbProxyObject
 90
      499
 91
      501
 93
      492
310
4411DBDD5C985D5915DA5D1A115919D95CD0340902404333333333333E33F0000000000000F90107409019070040501600405405064090741402480A1B50
1001
ACAD
1000
AcDbSavedByObjectVersion
1070
     0
  0
ACAD_PROXY_OBJECT
  5
31
102
{ACAD_REACTORS
330
2A
102
}
330
2A
100
AcDbProxyObject
 90
      499
 91
      501
 93
      476
310
41921A5919195B90640502408333333333333E33F0000000000000F901079024090700405020000000000001110200405405064090740C02480A0340
1001
ACAD
1000
AcDbSavedByObjectVersion
1070
     0
  0
ACAD_PROXY_OBJECT
  5
3B
102
{ACAD_REACTORS
330
2A
102
}
330
2A
100
AcDbProxyObject
 90
      499
 91
      501
 93
      428
310
42529A5D1D195C93D999914409028333333333333E33F0000000000000F9010790141107004050150A41D405064090741402480A0350
1001
ACAD
1000
AcDbSavedByObjectVersion
1070
     0
  0
ACAD_PROXY_OBJECT
  5
38
102
{ACAD_REACTORS
330
2A
102
}
330
2A
100
AcDbProxyObject
 90
      499
 91
      501
 93
      444
310
42D31A5B995C185D1D195C9B90E409028333333333333E33F0000000000000F9010790141107004050750841D405064090741402483A0350
1001
ACAD
1000
AcDbSavedByObjectVersion
1070
     0
  0
ACAD_PROXY_OBJECT
  5
3C
102
{ACAD_REACTORS
330
2A
102
}
330
2A
100
AcDbProxyObject
 90
      499
 91
      501
 93
      444
310
42D3DD995C9A185B99D3D999915409028333333333333E33F0000000000000F9010790141107004050150941D405064090741402480A0350
1001
ACAD
1000
AcDbSavedByObjectVersion
1070
     0
  0
ACAD_PROXY_OBJECT
  5
33
102
{ACAD_REACTORS
330
2A
102
}
330
2A
100
AcDbProxyObject
 90
      499
 91
      501
 93
      428
310
425499585B1A5CDD1A58D08409038333333333333E33F0000000000000F9010740A907004050150800405405064090740C02480A1B40
1001
ACAD
1000
AcDbSavedByObjectVersion
1070
     0
  0
ACAD_PROXY_OBJECT
  5
42
102
{ACAD_REACTORS
330
2A
102
}
330
2A
100
AcDbProxyObject
 90
      499
 91
      501
 93
      420
310
4194DA1859195911B40902404333333333333E33F0000000000000F9010740A41107004050150800405405064090840C02480A0B40
1001
ACAD
1000
AcDbSavedByObjectVersion
1070
     0
  0
ACAD_PROXY_OBJECT
  5
41
102
{ACAD_REACTORS
330
2A
102
}
330
2A
100
AcDbProxyObject
 90
      499
 91
      501
 93
      516
310
4454DA18591959081DDA5D1A08195919D95CD1A40902404333333333333E33F0000000000000F901074090142907004050250800405405064090740C02480A0B40
1001
ACAD
1000
AcDbSavedByObjectVersion
1070
     0
  0
ACAD_PROXY_OBJECT
  5
3E
102
{ACAD_REACTORS
330
2A
102
}
330
2A
100
AcDbProxyObject
 90
      499
 91
      501
 93
      532
310
4394DA1859195CC81BD98811DC985E5174090240C333333333333E33F0000000000000F901079024090741D01000000000000111010841D405064090740C02480A0340
1001
ACAD
1000
AcDbSavedByObjectVersion
1070
     0
  0
ACAD_PROXY_OBJECT
  5
3F
102
{ACAD_REACTORS
330
2A
102
}
330
2A
100
AcDbProxyObject
 90
      499
 91
      501
 93
      476
310
41D4DAD95D18DA1E51840502408333333333333E33F0000000000000F901079024090741D01000000000000111010B41D405064090741802480A0340
1001
ACAD
1000
AcDbSavedByObjectVersion
1070
     0
  0
ACAD_PROXY_OBJECT
  5
37
102
{ACAD_REACTORS
330
2A
102
}
330
2A
100
AcDbProxyObject
 90
      499
 91
      501
 93
      412
310
41D51A1A58DAD95B90D409028333333333333E33F0000000000000F9010790141107004050150C41D405064090741402480A0350
1001
ACAD
1000
AcDbSavedByObjectVersion
1070
     0
  0
ACAD_PROXY_OBJECT
  5
30
102
{ACAD_REACTORS
330
2A
102
}
330
2A
100
AcDbProxyObject
 90
      499
 91
      501
 93
      420
310
4255DA5C99599C985B595059028333333333333E33F0000000000000F90107901411070040501600405405064090740C02480A0340
1001
ACAD
1000
AcDbSavedByObjectVersion
1070
     0
  0
ACAD_PROXY_OBJECT
  5
40
102
{ACAD_REACTORS
330
2A
102
}
330
2A
100
AcDbProxyObject
 90
      499
 91
      501
 93
      404
310
41560B54985E51940902404000000000000E03F0000000000000F9010740501907004050150841D405064090740C02480A1B40
1001
ACAD
1000
AcDbSavedByObjectVersion
1070
     0
  0
XRECORD
  5
56A
102
{ACAD_REACTORS
330
561
102
}
330
561
100
AcDbXrecord
 90
        0
  0
XRECORD
  5
580
102
{ACAD_REACTORS
330
561
102
}
330
561
100
AcDbXrecord
1000
DSTYLE
1002
{
1070
   171
 70
     2
1070
   143
 40
25.4
1070
   274
 70
     2
1070
    41
 40
0.18
1070
   141
 40
0.09
1070
   271
 70
     4
1070
    43
 40
0.38
1070
   278
 70
    46
1070
    44
 40
0.18
1070
    42
 40
0.0625
1070
   147
 40
0.09
1070
    77
 70
     0
1070
   272
 70
     4
1070
    73
 70
     1
1070
   172
 70
     0
1070
    74
 70
     1
1070
   283
 70
     1
1070
   340
340
11
1070
   140
 40
0.18
1070
   284
 70
     0
1070
    78
 70
     0
1002
}
  0
XRECORD
  5
56B
102
{ACAD_REACTORS
330
561
102
}
330
561
100
AcDbXrecord
  1
{664880D7-5273-4B8E-BE8B-9F760E091472}
  0
XRECORD
  5
564
102
{ACAD_REACTORS
330
561
102
}
330
561
100
AcDbXrecord
  1

  0
XRECORD
  5
569
102
{ACAD_REACTORS
330
561
102
}
330
561
100
AcDbXrecord
 90
        4
  0
XRECORD
  5
566
102
{ACAD_REACTORS
330
561
102
}
330
561
100
AcDbXrecord
340
1A
  0
XRECORD
  5
568
102
{ACAD_REACTORS
330
561
102
}
330
561
100
AcDbXrecord
 90
    10781
  0
XRECORD
  5
567
102
{ACAD_REACTORS
330
561
102
}
330
561
100
AcDbXrecord
340
19
  0
XRECORD
  5
56D
102
{ACAD_REACTORS
330
561
102
}
330
561
100
AcDbXrecord
 40
0.0
  0
XRECORD
  5
570
102
{ACAD_REACTORS
330
561
102
}
330
561
100
AcDbXrecord
340
0
  0
XRECORD
  5
576
102
{ACAD_REACTORS
330
561
102
}
330
561
100
AcDbXrecord
 10
0.0
 20
0.0
 30
0.0
  0
XRECORD
  5
572
102
{ACAD_REACTORS
330
561
102
}
330
561
100
AcDbXrecord
 10
0.0
 20
0.0
 30
0.0
  0
XRECORD
  5
575
102
{ACAD_REACTORS
330
561
102
}
330
561
100
AcDbXrecord
 10
0.0
 20
0.0
 30
0.0
  0
XRECORD
  5
573
102
{ACAD_REACTORS
330
561
102
}
330
561
100
AcDbXrecord
 10
0.0
 20
0.0
 30
0.0
  0
XRECORD
  5
574
102
{ACAD_REACTORS
330
561
102
}
330
561
100
AcDbXrecord
 10
0.0
 20
0.0
 30
0.0
  0
XRECORD
  5
571
102
{ACAD_REACTORS
330
561
102
}
330
561
100
AcDbXrecord
 10
0.0
 20
0.0
 30
0.0
  0
XRECORD
  5
56E
102
{ACAD_REACTORS
330
561
102
}
330
561
100
AcDbXrecord
340
0
  0
XRECORD
  5
56F
102
{ACAD_REACTORS
330
561
102
}
330
561
100
AcDbXrecord
 70
     0
  0
XRECORD
  5
565
102
{ACAD_REACTORS
330
561
102
}
330
561
100
AcDbXrecord
  1

  0
XRECORD
  5
562
102
{ACAD_REACTORS
330
561
102
}
330
561
100
AcDbXrecord
 90
        1
  0
XRECORD
  5
563
102
{ACAD_REACTORS
330
561
102
}
330
561
100
AcDbXrecord
 90
       70
  0
XRECORD
  5
579
102
{ACAD_REACTORS
330
561
102
}
330
561
100
AcDbXrecord
340
0
  0
XRECORD
  5
57F
102
{ACAD_REACTORS
330
561
102
}
330
561
100
AcDbXrecord
 10
0.0
 20
0.0
 30
0.0
  0
XRECORD
  5
57B
102
{ACAD_REACTORS
330
561
102
}
330
561
100
AcDbXrecord
 10
0.0
 20
0.0
 30
0.0
  0
XRECORD
  5
57E
102
{ACAD_REACTORS
330
561
102
}
330
561
100
AcDbXrecord
 10
0.0
 20
0.0
 30
0.0
  0
XRECORD
  5
57C
102
{ACAD_REACTORS
330
561
102
}
330
561
100
AcDbXrecord
 10
0.0
 20
0.0
 30
0.0
  0
XRECORD
  5
57D
102
{ACAD_REACTORS
330
561
102
}
330
561
100
AcDbXrecord
 10
0.0
 20
0.0
 30
0.0
  0
XRECORD
  5
57A
102
{ACAD_REACTORS
330
561
102
}
330
561
100
AcDbXrecord
 10
0.0
 20
0.0
 30
0.0
  0
XRECORD
  5
577
102
{ACAD_REACTORS
330
561
102
}
330
561
100
AcDbXrecord
340
0
  0
XRECORD
  5
578
102
{ACAD_REACTORS
330
561
102
}
330
561
100
AcDbXrecord
 70
     0
  0
XRECORD
  5
56C
102
{ACAD_REACTORS
330
561
102
}
330
561
100
AcDbXrecord
  1
{FAEB1C32-E019-11D5-929B-00C0DF256EC4}
  0
DICTIONARYVAR
  5
58A
102
{ACAD_REACTORS
330
581
102
}
330
581
100
DictionaryVariables
280
     0
  1
1:1
  0
DICTIONARYVAR
  5
586
102
{ACAD_REACTORS
330
581
102
}
330
581
100
DictionaryVariables
280
     0
  1
2
  0
DICTIONARYVAR
  5
587
102
{ACAD_REACTORS
330
581
102
}
330
581
100
DictionaryVariables
280
     0
  1
1
  0
DICTIONARYVAR
  5
58B
102
{ACAD_REACTORS
330
581
102
}
330
581
100
DictionaryVariables
280
     0
  1
1
  0
DICTIONARY
  5
58E
330
45
100
AcDbDictionary
280
     1
  3
ACAD_XREC_ROUNDTRIP
360
58F
  0
DICTIONARY
  5
58C
330
44
100
AcDbDictionary
280
     1
  3
ACAD_XREC_ROUNDTRIP
360
58D
  0
DICTIONARY
  5
590
330
46
100
AcDbDictionary
280
     1
  3
ACAD_XREC_ROUNDTRIP
360
591
  0
XRECORD
  5
58F
102
{ACAD_REACTORS
330
58E
102
}
330
58E
100
AcDbXrecord
102
MATERIAL
148
0.0
149
0.0
149
0.0
 93
        0
 94
      127
282
     0
 72
     1
 77
     1
171
     1
175
     1
179
     1
273
     0
  0
XRECORD
  5
58D
102
{ACAD_REACTORS
330
58C
102
}
330
58C
100
AcDbXrecord
102
MATERIAL
148
0.0
149
0.0
149
0.0
 93
        0
 94
      127
282
     0
 72
     1
 77
     1
171
     1
175
     1
179
     1
273
     0
  0
XRECORD
  5
591
102
{ACAD_REACTORS
330
590
102
}
330
590
100
AcDbXrecord
102
MATERIAL
148
0.0
149
0.0
149
0.0
 93
        0
 94
      127
282
     0
 72
     1
 77
     1
171
     1
175
     1
179
     1
273
     0
  0
ENDSEC
  0
EOF
