  0
SECTION
  2
HEADER
  9
$ACADVER
  1
AC1014
  9
$ACADMAINTVER
 70
     9
  9
$DWGCODEPAGE
  3
ANSI_1252
  9
$INSBASE
 10
0.0
 20
0.0
 30
0.0
  9
$EXTMIN
 10
1.000000000000000E+20
 20
1.000000000000000E+20
 30
1.000000000000000E+20
  9
$EXTMAX
 10
-1.000000000000000E+20
 20
-1.000000000000000E+20
 30
-1.000000000000000E+20
  9
$LIMMIN
 10
0.0
 20
0.0
  9
$LIMMAX
 10
12.0
 20
9.0
  9
$ORTHOMODE
 70
     0
  9
$REGENMODE
 70
     1
  9
$FILLMODE
 70
     1
  9
$QTEXTMODE
 70
     0
  9
$MIRRTEXT
 70
     1
  9
$DRAGMODE
 70
     2
  9
$LTSCALE
 40
1.0
  9
$OSMODE
 70
    37
  9
$ATTMODE
 70
     1
  9
$TEXTSIZE
 40
0.2
  9
$TRACEWID
 40
0.05
  9
$TEXTSTYLE
  7
STANDARD
  9
$CLAYER
  8
0
  9
$CELTYPE
  6
BYLAYER
  9
$CECOLOR
 62
   256
  9
$CELTSCALE
 40
1.0
  9
$DELOBJ
 70
     1
  9
$DISPSILH
 70
     0
  9
$DIMSCALE
 40
1.0
  9
$DIMASZ
 40
0.18
  9
$DIMEXO
 40
0.0625
  9
$DIMDLI
 40
0.38
  9
$DIMRND
 40
0.0
  9
$DIMDLE
 40
0.0
  9
$DIMEXE
 40
0.18
  9
$DIMTP
 40
0.0
  9
$DIMTM
 40
0.0
  9
$DIMTXT
 40
0.18
  9
$DIMCEN
 40
0.09
  9
$DIMTSZ
 40
0.0
  9
$DIMTOL
 70
     0
  9
$DIMLIM
 70
     0
  9
$DIMTIH
 70
     1
  9
$DIMTOH
 70
     1
  9
$DIMSE1
 70
     0
  9
$DIMSE2
 70
     0
  9
$DIMTAD
 70
     0
  9
$DIMZIN
 70
     0
  9
$DIMBLK
  1

  9
$DIMASO
 70
     1
  9
$DIMSHO
 70
     1
  9
$DIMPOST
  1

  9
$DIMAPOST
  1

  9
$DIMALT
 70
     0
  9
$DIMALTD
 70
     2
  9
$DIMALTF
 40
25.4
  9
$DIMLFAC
 40
1.0
  9
$DIMTOFL
 70
     0
  9
$DIMTVP
 40
0.0
  9
$DIMTIX
 70
     0
  9
$DIMSOXD
 70
     0
  9
$DIMSAH
 70
     0
  9
$DIMBLK1
  1

  9
$DIMBLK2
  1

  9
$DIMSTYLE
  2
STANDARD
  9
$DIMCLRD
 70
     0
  9
$DIMCLRE
 70
     0
  9
$DIMCLRT
 70
     0
  9
$DIMTFAC
 40
1.0
  9
$DIMGAP
 40
0.09
  9
$DIMJUST
 70
     0
  9
$DIMSD1
 70
     0
  9
$DIMSD2
 70
     0
  9
$DIMTOLJ
 70
     1
  9
$DIMTZIN
 70
     0
  9
$DIMALTZ
 70
     0
  9
$DIMALTTZ
 70
     0
  9
$DIMFIT
 70
     3
  9
$DIMUPT
 70
     0
  9
$DIMUNIT
 70
     2
  9
$DIMDEC
 70
     4
  9
$DIMTDEC
 70
     4
  9
$DIMALTU
 70
     2
  9
$DIMALTTD
 70
     2
  9
$DIMTXSTY
  7
STANDARD
  9
$DIMAUNIT
 70
     0
  9
$LUNITS
 70
     2
  9
$LUPREC
 70
     4
  9
$SKETCHINC
 40
0.1
  9
$FILLETRAD
 40
0.5
  9
$AUNITS
 70
     0
  9
$AUPREC
 70
     0
  9
$MENU
  1
.
  9
$ELEVATION
 40
0.0
  9
$PELEVATION
 40
0.0
  9
$THICKNESS
 40
0.0
  9
$LIMCHECK
 70
     0
  9
$CHAMFERA
 40
0.0
  9
$CHAMFERB
 40
0.0
  9
$CHAMFERC
 40
0.0
  9
$CHAMFERD
 40
0.0
  9
$SKPOLY
 70
     0
  9
$TDCREATE
 40
2457240.543079167
  9
$TDUPDATE
 40
2457240.543079167
  9
$TDINDWG
 40
0.0000000116
  9
$TDUSRTIMER
 40
0.0000000116
  9
$USRTIMER
 70
     1
  9
$ANGBASE
 50
0.0
  9
$ANGDIR
 70
     0
  9
$PDMODE
 70
     0
  9
$PDSIZE
 40
0.0
  9
$PLINEWID
 40
0.0
  9
$COORDS
 70
     1
  9
$SPLFRAME
 70
     0
  9
$SPLINETYPE
 70
     6
  9
$SPLINESEGS
 70
     8
  9
$ATTDIA
 70
     0
  9
$ATTREQ
 70
     1
  9
$HANDLING
 70
     1
  9
$HANDSEED
  5
502
  9
$SURFTAB1
 70
     6
  9
$SURFTAB2
 70
     6
  9
$SURFTYPE
 70
     6
  9
$SURFU
 70
     6
  9
$SURFV
 70
     6
  9
$UCSNAME
  2

  9
$UCSORG
 10
0.0
 20
0.0
 30
0.0
  9
$UCSXDIR
 10
1.0
 20
0.0
 30
0.0
  9
$UCSYDIR
 10
0.0
 20
1.0
 30
0.0
  9
$PUCSNAME
  2

  9
$PUCSORG
 10
0.0
 20
0.0
 30
0.0
  9
$PUCSXDIR
 10
1.0
 20
0.0
 30
0.0
  9
$PUCSYDIR
 10
0.0
 20
1.0
 30
0.0
  9
$USERI1
 70
     0
  9
$USERI2
 70
     0
  9
$USERI3
 70
     0
  9
$USERI4
 70
     0
  9
$USERI5
 70
     0
  9
$USERR1
 40
0.0
  9
$USERR2
 40
0.0
  9
$USERR3
 40
0.0
  9
$USERR4
 40
0.0
  9
$USERR5
 40
0.0
  9
$WORLDVIEW
 70
     1
  9
$SHADEDGE
 70
     3
  9
$SHADEDIF
 70
    70
  9
$TILEMODE
 70
     1
  9
$MAXACTVP
 70
    64
  9
$PINSBASE
 10
0.0
 20
0.0
 30
0.0
  9
$PLIMCHECK
 70
     0
  9
$PEXTMIN
 10
1.000000000000000E+20
 20
1.000000000000000E+20
 30
1.000000000000000E+20
  9
$PEXTMAX
 10
-1.000000000000000E+20
 20
-1.000000000000000E+20
 30
-1.000000000000000E+20
  9
$PLIMMIN
 10
0.0
 20
0.0
  9
$PLIMMAX
 10
12.0
 20
9.0
  9
$UNITMODE
 70
     0
  9
$VISRETAIN
 70
     1
  9
$PLINEGEN
 70
     0
  9
$PSLTSCALE
 70
     1
  9
$TREEDEPTH
 70
  3020
  9
$PICKSTYLE
 70
     1
  9
$CMLSTYLE
  2
STANDARD
  9
$CMLJUST
 70
     0
  9
$CMLSCALE
 40
1.0
  9
$PROXYGRAPHICS
 70
     1
  9
$MEASUREMENT
 70
     1
  0
ENDSEC
  0
SECTION
  2
CLASSES
  0
CLASS
  1
ACDBDICTIONARYWDFLT
  2
AcDbDictionaryWithDefault
  3
ObjectDBX Classes
 90
        0
280
     0
281
     0
  0
CLASS
  1
VISUALSTYLE
  2
AcDbVisualStyle
  3
ObjectDBX Classes
 90
     4095
280
     0
281
     0
  0
CLASS
  1
MATERIAL
  2
AcDbMaterial
  3
ObjectDBX Classes
 90
     1153
280
     0
281
     0
  0
CLASS
  1
SCALE
  2
AcDbScale
  3
ObjectDBX Classes
 90
     1153
280
     0
281
     0
  0
CLASS
  1
SUN
  2
AcDbSun
  3
SCENEOE
 90
     1153
280
     0
281
     0
  0
CLASS
  1
DICTIONARYVAR
  2
AcDbDictionaryVar
  3
ObjectDBX Classes
 90
        0
280
     0
281
     0
  0
CLASS
  1
XRECORD
  2
AcDbXrecord
  3
ObjectDBX Classes
 90
        0
280
     0
281
     0
  0
CLASS
  1
LWPOLYLINE
  2
AcDbPolyline
  3
ObjectDBX Classes
 90
        0
280
     0
281
     1
  0
CLASS
  1
HATCH
  2
AcDbHatch
  3
ObjectDBX Classes
 90
        0
280
     0
281
     1
  0
CLASS
  1
ACDBPLACEHOLDER
  2
AcDbPlaceHolder
  3
ObjectDBX Classes
 90
        0
280
     0
281
     0
  0
CLASS
  1
LAYOUT
  2
AcDbLayout
  3
ObjectDBX Classes
 90
        0
280
     0
281
     0
  0
ENDSEC
  0
SECTION
  2
TABLES
  0
TABLE
  2
VPORT
  5
8
102
{ACAD_XDICTIONARY
360
4F8
102
}
330
0
100
AcDbSymbolTable
 70
     1
  0
VPORT
  5
29
330
8
100
AcDbSymbolTableRecord
100
AcDbViewportTableRecord
  2
*ACTIVE
 70
     0
 10
0.0
 20
0.0
 11
1.0
 21
1.0
 12
0.0
 22
0.0
 13
0.0
 23
0.0
 14
0.5
 24
0.5
 15
0.5
 25
0.5
 16
0.0
 26
0.0
 36
1.0
 17
0.0
 27
0.0
 37
-1000.0
 40
35.39435305243111
 41
1.508506616257089
 42
50.0
 43
24.75665106387613
 44
58.19812907807081
 50
0.0
 51
0.0
 71
     0
 72
   100
 73
     1
 74
     3
 75
     0
 76
     0
 77
     0
 78
     0
  0
ENDTAB
  0
TABLE
  2
LTYPE
  5
5
330
0
100
AcDbSymbolTable
 70
     1
  0
LTYPE
  5
14
330
5
100
AcDbSymbolTableRecord
100
AcDbLinetypeTableRecord
  2
BYBLOCK
 70
     0
  3

 72
    65
 73
     0
 40
0.0
  0
LTYPE
  5
15
330
5
100
AcDbSymbolTableRecord
100
AcDbLinetypeTableRecord
  2
BYLAYER
 70
     0
  3

 72
    65
 73
     0
 40
0.0
  0
LTYPE
  5
16
330
5
100
AcDbSymbolTableRecord
100
AcDbLinetypeTableRecord
  2
CONTINUOUS
 70
     0
  3
Solid line
 72
    65
 73
     0
 40
0.0
  0
ENDTAB
  0
TABLE
  2
LAYER
  5
2
330
0
100
AcDbSymbolTable
 70
     3
  0
LAYER
  5
10
330
2
100
AcDbSymbolTableRecord
100
AcDbLayerTableRecord
  2
0
 70
     0
 62
     7
  6
CONTINUOUS
  0
LAYER
  5
6A
330
2
100
AcDbSymbolTableRecord
100
AcDbLayerTableRecord
  2
PROFILEEDGES
 70
     0
 62
     7
  6
CONTINUOUS
  0
LAYER
  5
6B
330
2
100
AcDbSymbolTableRecord
100
AcDbLayerTableRecord
  2
SECTIONCUTEDGES
 70
     0
 62
     7
  6
CONTINUOUS
  0
ENDTAB
  0
TABLE
  2
STYLE
  5
3
330
0
100
AcDbSymbolTable
 70
     1
  0
STYLE
  5
11
330
3
100
AcDbSymbolTableRecord
100
AcDbTextStyleTableRecord
  2
STANDARD
 70
     0
 40
0.0
 41
1.0
 50
0.0
 71
     0
 42
0.2
  3
txt
  4

  0
ENDTAB
  0
TABLE
  2
VIEW
  5
6
330
0
100
AcDbSymbolTable
 70
     0
  0
ENDTAB
  0
TABLE
  2
UCS
  5
7
330
0
100
AcDbSymbolTable
 70
     0
  0
ENDTAB
  0
TABLE
  2
APPID
  5
9
330
0
100
AcDbSymbolTable
 70
     1
  0
APPID
  5
12
330
9
100
AcDbSymbolTableRecord
100
AcDbRegAppTableRecord
  2
ACAD
 70
     0
  0
ENDTAB
  0
TABLE
  2
DIMSTYLE
  5
A
330
0
100
AcDbSymbolTable
 70
     1
  0
DIMSTYLE
105
27
330
A
100
AcDbSymbolTableRecord
100
AcDbDimStyleTableRecord
  2
STANDARD
 70
     0
  3

  4

  5

  6

  7

 40
1.0
 41
0.18
 42
0.0625
 43
0.38
 44
0.18
 45
0.0
 46
0.0
 47
0.0
 48
0.0
140
0.18
141
0.09
142
0.0
143
25.4
144
1.0
145
0.0
146
1.0
147
0.09
 71
     0
 72
     0
 73
     1
 74
     1
 75
     0
 76
     0
 77
     0
 78
     0
170
     0
171
     2
172
     0
173
     0
174
     0
175
     0
176
     0
177
     0
178
     0
270
     2
271
     4
272
     4
273
     2
274
     2
340
11
275
     0
280
     0
281
     0
282
     0
283
     1
284
     0
285
     0
286
     0
287
     3
288
     0
  0
ENDTAB
  0
TABLE
  2
BLOCK_RECORD
  5
1
330
0
100
AcDbSymbolTable
 70
     1
  0
BLOCK_RECORD
  5
1F
330
1
100
AcDbSymbolTableRecord
100
AcDbBlockTableRecord
  2
*MODEL_SPACE
  0
BLOCK_RECORD
  5
1B
330
1
100
AcDbSymbolTableRecord
100
AcDbBlockTableRecord
  2
*PAPER_SPACE
  0
ENDTAB
  0
ENDSEC
  0
SECTION
  2
BLOCKS
  0
BLOCK
  5
20
330
1F
100
AcDbEntity
  8
0
100
AcDbBlockBegin
  2
*MODEL_SPACE
 70
     0
 10
0.0
 20
0.0
 30
0.0
  3
*MODEL_SPACE
  1

  0
ENDBLK
  5
21
330
1F
100
AcDbEntity
  8
0
100
AcDbBlockEnd
  0
BLOCK
  5
1C
330
1B
100
AcDbEntity
 67
     1
  8
0
100
AcDbBlockBegin
  2
*PAPER_SPACE
 70
     0
 10
0.0
 20
0.0
 30
0.0
  3
*PAPER_SPACE
  1

  0
ENDBLK
  5
1D
330
1B
100
AcDbEntity
 67
     1
  8
0
100
AcDbBlockEnd
  0
ENDSEC
  0
SECTION
  2
ENTITIES
  0
LINE
  5
6C
330
1F
100
AcDbEntity
  8
0
100
AcDbLine
 10
-1.861745417356553
 20
0.5683726509998334
 30
0.0
 11
-2.491744017356541
 21
0.5683726509998334
 31
0.0
  0
LINE
  5
6D
330
1F
100
AcDbEntity
  8
0
100
AcDbLine
 10
-4.591744217356541
 20
3.298373050999832
 30
0.0
 11
-4.591744217356541
 21
2.668372850999833
 31
0.0
  0
LINE
  5
6E
330
1F
100
AcDbEntity
  8
0
100
AcDbLine
 10
-5.301433617356554
 20
10.05382045099983
 30
0.0
 11
-5.301433617356554
 21
10.14560805099984
 31
0.0
  0
LINE
  5
6F
330
1F
100
AcDbEntity
  8
0
100
AcDbLine
 10
-5.301433617356554
 20
10.14560805099984
 30
0.0
 11
-6.006476617356552
 21
10.14560805099984
 31
0.0
  0
LINE
  5
70
330
1F
100
AcDbEntity
  8
0
100
AcDbLine
 10
-6.006476617356552
 20
10.14560805099984
 30
0.0
 11
-6.006476617356552
 21
10.07701985099983
 31
0.0
  0
LINE
  5
71
330
1F
100
AcDbEntity
  8
0
100
AcDbLine
 10
-6.006476617356552
 20
10.07701985099983
 30
0.0
 11
-5.944950017356551
 21
10.05886485099984
 31
0.0
  0
LINE
  5
72
330
1F
100
AcDbEntity
  8
0
100
AcDbLine
 10
-5.944950017356551
 20
10.05886485099984
 30
0.0
 11
-5.903594217356555
 21
10.02255205099983
 31
0.0
  0
LINE
  5
73
330
1F
100
AcDbEntity
  8
0
100
AcDbLine
 10
-5.903594217356555
 20
10.02255205099983
 30
0.0
 11
-5.879387617356551
 21
9.967077250999832
 31
0.0
  0
LINE
  5
74
330
1F
100
AcDbEntity
  8
0
100
AcDbLine
 10
-5.879387617356551
 20
9.967077250999832
 30
0.0
 11
-5.871318817356552
 21
9.890420050999833
 31
0.0
  0
LINE
  5
75
330
1F
100
AcDbEntity
  8
0
100
AcDbLine
 10
-5.871318817356552
 20
9.890420050999833
 30
0.0
 11
-5.799704817356555
 21
9.890420050999833
 31
0.0
  0
LINE
  5
76
330
1F
100
AcDbEntity
  8
0
100
AcDbLine
 10
-5.799704817356555
 20
9.890420050999833
 30
0.0
 11
-5.799704817356555
 21
10.05382045099983
 31
0.0
  0
LINE
  5
77
330
1F
100
AcDbEntity
  8
0
100
AcDbLine
 10
-5.799704817356555
 20
10.05382045099983
 30
0.0
 11
-5.301433617356554
 21
10.05382045099983
 31
0.0
  0
LINE
  5
78
330
1F
100
AcDbEntity
  8
0
100
AcDbLine
 10
-5.301433617356554
 20
10.74958445099983
 30
0.0
 11
-5.301433617356554
 21
10.88877825099983
 31
0.0
  0
LINE
  5
79
330
1F
100
AcDbEntity
  8
0
100
AcDbLine
 10
-5.301433617356554
 20
10.88877825099983
 30
0.0
 11
-5.451720417356551
 21
10.88877825099983
 31
0.0
  0
LINE
  5
7A
330
1F
100
AcDbEntity
  8
0
100
AcDbLine
 10
-5.451720417356551
 20
10.88877825099983
 30
0.0
 11
-5.451720417356551
 21
10.74958445099983
 31
0.0
  0
LINE
  5
7B
330
1F
100
AcDbEntity
  8
0
100
AcDbLine
 10
-5.451720417356551
 20
10.74958445099983
 30
0.0
 11
-5.301433617356554
 21
10.74958445099983
 31
0.0
  0
LINE
  5
7C
330
1F
100
AcDbEntity
  8
0
100
AcDbLine
 10
-5.812816617356551
 20
11.80845905099984
 30
0.0
 11
-5.894516817356552
 21
11.78929705099985
 31
0.0
  0
LINE
  5
7D
330
1F
100
AcDbEntity
  8
0
100
AcDbLine
 10
-5.894516817356552
 20
11.78929705099985
 30
0.0
 11
-5.955036217356553
 21
11.74491525099983
 31
0.0
  0
LINE
  5
7E
330
1F
100
AcDbEntity
  8
0
100
AcDbLine
 10
-5.955036217356553
 20
11.74491525099983
 30
0.0
 11
-5.993364617356552
 21
11.67632705099983
 31
0.0
  0
LINE
  5
7F
330
1F
100
AcDbEntity
  8
0
100
AcDbLine
 10
-5.993364617356552
 20
11.67632705099983
 30
0.0
 11
-6.006476617356552
 21
11.58756665099984
 31
0.0
  0
LINE
  5
80
330
1F
100
AcDbEntity
  8
0
100
AcDbLine
 10
-6.006476617356552
 20
11.58756665099984
 30
0.0
 11
-5.999416417356552
 21
11.52805745099983
 31
0.0
  0
LINE
  5
81
330
1F
100
AcDbEntity
  8
0
100
AcDbLine
 10
-5.999416417356552
 20
11.52805745099983
 30
0.0
 11
-5.980252817356553
 21
11.47661705099983
 31
0.0
  0
LINE
  5
82
330
1F
100
AcDbEntity
  8
0
100
AcDbLine
 10
-5.980252817356553
 20
11.47661705099983
 30
0.0
 11
-5.948984417356553
 21
11.43122825099983
 31
0.0
  0
LINE
  5
83
330
1F
100
AcDbEntity
  8
0
100
AcDbLine
 10
-5.948984417356553
 20
11.43122825099983
 30
0.0
 11
-5.904604417356555
 21
11.39289805099983
 31
0.0
  0
LINE
  5
84
330
1F
100
AcDbEntity
  8
0
100
AcDbLine
 10
-5.904604417356555
 20
11.39289805099983
 30
0.0
 11
-5.849128017356553
 21
11.36264005099984
 31
0.0
  0
LINE
  5
85
330
1F
100
AcDbEntity
  8
0
100
AcDbLine
 10
-5.849128017356553
 20
11.36264005099984
 30
0.0
 11
-5.781548217356554
 21
11.34044765099983
 31
0.0
  0
LINE
  5
86
330
1F
100
AcDbEntity
  8
0
100
AcDbLine
 10
-5.781548217356554
 20
11.34044765099983
 30
0.0
 11
-5.701865417356552
 21
11.32632705099984
 31
0.0
  0
LINE
  5
87
330
1F
100
AcDbEntity
  8
0
100
AcDbLine
 10
-5.701865417356552
 20
11.32632705099984
 30
0.0
 11
-5.61209641735655
 21
11.32229265099983
 31
0.0
  0
LINE
  5
88
330
1F
100
AcDbEntity
  8
0
100
AcDbLine
 10
-5.61209641735655
 20
11.32229265099983
 30
0.0
 11
-5.468868217356554
 21
11.33843045099983
 31
0.0
  0
LINE
  5
89
330
1F
100
AcDbEntity
  8
0
100
AcDbLine
 10
-5.468868217356554
 20
11.33843045099983
 30
0.0
 11
-5.364977217356554
 21
11.38785665099983
 31
0.0
  0
LINE
  5
8A
330
1F
100
AcDbEntity
  8
0
100
AcDbLine
 10
-5.364977217356554
 20
11.38785665099983
 30
0.0
 11
-5.302443617356553
 21
11.46753805099983
 31
0.0
  0
LINE
  5
8B
330
1F
100
AcDbEntity
  8
0
100
AcDbLine
 10
-5.302443617356553
 20
11.46753805099983
 30
0.0
 11
-5.281261417356549
 21
11.57647365099984
 31
0.0
  0
LINE
  5
8C
330
1F
100
AcDbEntity
  8
0
100
AcDbLine
 10
-5.281261417356549
 20
11.57647365099984
 30
0.0
 11
-5.299416417356554
 21
11.67430985099983
 31
0.0
  0
LINE
  5
8D
330
1F
100
AcDbEntity
  8
0
100
AcDbLine
 10
-5.299416417356554
 20
11.67430985099983
 30
0.0
 11
-5.346822417356553
 21
11.74894985099983
 31
0.0
  0
LINE
  5
8E
330
1F
100
AcDbEntity
  8
0
100
AcDbLine
 10
-5.346822417356553
 20
11.74894985099983
 30
0.0
 11
-5.421462217356554
 21
11.79736585099984
 31
0.0
  0
LINE
  5
8F
330
1F
100
AcDbEntity
  8
0
100
AcDbLine
 10
-5.421462217356554
 20
11.79736585099984
 30
0.0
 11
-5.516275817356553
 21
11.81451365099985
 31
0.0
  0
LINE
  5
90
330
1F
100
AcDbEntity
  8
0
100
AcDbLine
 10
-5.516275817356553
 20
11.81451365099985
 30
0.0
 11
-5.61209641735655
 21
11.79736585099984
 31
0.0
  0
LINE
  5
91
330
1F
100
AcDbEntity
  8
0
100
AcDbLine
 10
-5.61209641735655
 20
11.79736585099984
 30
0.0
 11
-5.685727617356553
 21
11.75096705099984
 31
0.0
  0
LINE
  5
92
330
1F
100
AcDbEntity
  8
0
100
AcDbLine
 10
-5.685727617356553
 20
11.75096705099984
 30
0.0
 11
-5.732125017356553
 21
11.67935445099983
 31
0.0
  0
LINE
  5
93
330
1F
100
AcDbEntity
  8
0
100
AcDbLine
 10
-5.732125017356553
 20
11.67935445099983
 30
0.0
 11
-5.748264217356549
 21
11.59059105099983
 31
0.0
  0
LINE
  5
94
330
1F
100
AcDbEntity
  8
0
100
AcDbLine
 10
-5.748264217356549
 20
11.59059105099983
 30
0.0
 11
-5.728090617356552
 21
11.49477185099984
 31
0.0
  0
LINE
  5
95
330
1F
100
AcDbEntity
  8
0
100
AcDbLine
 10
-5.728090617356552
 20
11.49477185099984
 30
0.0
 11
-5.670598617356551
 21
11.42315625099984
 31
0.0
  0
LINE
  5
96
330
1F
100
AcDbEntity
  8
0
100
AcDbLine
 10
-5.670598617356551
 20
11.42315625099984
 30
0.0
 11
-5.781548217356554
 21
11.43828685099983
 31
0.0
  0
LINE
  5
97
330
1F
100
AcDbEntity
  8
0
100
AcDbLine
 10
-5.781548217356554
 20
11.43828685099983
 30
0.0
 11
-5.861231217356552
 21
11.47056545099985
 31
0.0
  0
LINE
  5
98
330
1F
100
AcDbEntity
  8
0
100
AcDbLine
 10
-5.861231217356552
 20
11.47056545099985
 30
0.0
 11
-5.90863881735655
 21
11.51998865099985
 31
0.0
  0
LINE
  5
99
330
1F
100
AcDbEntity
  8
0
100
AcDbLine
 10
-5.90863881735655
 20
11.51998865099985
 30
0.0
 11
-5.924776417356553
 21
11.58857685099984
 31
0.0
  0
LINE
  5
9A
330
1F
100
AcDbEntity
  8
0
100
AcDbLine
 10
-5.924776417356553
 20
11.58857685099984
 30
0.0
 11
-5.91670761735655
 21
11.63900705099983
 31
0.0
  0
LINE
  5
9B
330
1F
100
AcDbEntity
  8
0
100
AcDbLine
 10
-5.91670761735655
 20
11.63900705099983
 30
0.0
 11
-5.895525417356555
 21
11.67733725099983
 31
0.0
  0
LINE
  5
9C
330
1F
100
AcDbEntity
  8
0
100
AcDbLine
 10
-5.895525417356555
 20
11.67733725099983
 30
0.0
 11
-5.860222617356554
 21
11.70255385099983
 31
0.0
  0
LINE
  5
9D
330
1F
100
AcDbEntity
  8
0
100
AcDbLine
 10
-5.860222617356554
 20
11.70255385099983
 30
0.0
 11
-5.812816617356551
 21
11.71566425099983
 31
0.0
  0
LINE
  5
9E
330
1F
100
AcDbEntity
  8
0
100
AcDbLine
 10
-5.812816617356551
 20
11.71566425099983
 30
0.0
 11
-5.812816617356551
 21
11.80845905099984
 31
0.0
  0
LINE
  5
9F
330
1F
100
AcDbEntity
  8
0
100
AcDbLine
 10
-5.515267217356556
 20
11.71667445099983
 30
0.0
 11
-5.451720417356551
 21
11.70557825099983
 31
0.0
  0
LINE
  5
A0
330
1F
100
AcDbEntity
  8
0
100
AcDbLine
 10
-5.451720417356551
 20
11.70557825099983
 30
0.0
 11
-5.403307417356553
 21
11.67733725099983
 31
0.0
  0
LINE
  5
A1
330
1F
100
AcDbEntity
  8
0
100
AcDbLine
 10
-5.403307417356553
 20
11.67733725099983
 30
0.0
 11
-5.37102881735655
 21
11.63194845099984
 31
0.0
  0
LINE
  5
A2
330
1F
100
AcDbEntity
  8
0
100
AcDbLine
 10
-5.37102881735655
 20
11.63194845099984
 30
0.0
 11
-5.360942817356553
 21
11.57546345099983
 31
0.0
  0
LINE
  5
A3
330
1F
100
AcDbEntity
  8
0
100
AcDbLine
 10
-5.360942817356553
 20
11.57546345099983
 30
0.0
 11
-5.37102881735655
 21
11.51595425099983
 31
0.0
  0
LINE
  5
A4
330
1F
100
AcDbEntity
  8
0
100
AcDbLine
 10
-5.37102881735655
 20
11.51595425099983
 30
0.0
 11
-5.40229721735655
 21
11.47056545099985
 31
0.0
  0
LINE
  5
A5
330
1F
100
AcDbEntity
  8
0
100
AcDbLine
 10
-5.40229721735655
 20
11.47056545099985
 30
0.0
 11
-5.450713417356553
 21
11.44131425099984
 31
0.0
  0
LINE
  5
A6
330
1F
100
AcDbEntity
  8
0
100
AcDbLine
 10
-5.450713417356553
 20
11.44131425099984
 30
0.0
 11
-5.514258617356552
 21
11.43223525099984
 31
0.0
  0
LINE
  5
A7
330
1F
100
AcDbEntity
  8
0
100
AcDbLine
 10
-5.514258617356552
 20
11.43223525099984
 30
0.0
 11
-5.576793617356549
 21
11.44232125099983
 31
0.0
  0
LINE
  5
A8
330
1F
100
AcDbEntity
  8
0
100
AcDbLine
 10
-5.576793617356549
 20
11.44232125099983
 30
0.0
 11
-5.624199617356549
 21
11.47056545099985
 31
0.0
  0
LINE
  5
A9
330
1F
100
AcDbEntity
  8
0
100
AcDbLine
 10
-5.624199617356549
 20
11.47056545099985
 30
0.0
 11
-5.654459417356551
 21
11.51696125099983
 31
0.0
  0
LINE
  5
AA
330
1F
100
AcDbEntity
  8
0
100
AcDbLine
 10
-5.654459417356551
 20
11.51696125099983
 30
0.0
 11
-5.665554017356553
 21
11.57949785099983
 31
0.0
  0
LINE
  5
AB
330
1F
100
AcDbEntity
  8
0
100
AcDbLine
 10
-5.665554017356553
 20
11.57949785099983
 30
0.0
 11
-5.654459417356551
 21
11.63396565099983
 31
0.0
  0
LINE
  5
AC
330
1F
100
AcDbEntity
  8
0
100
AcDbLine
 10
-5.654459417356551
 20
11.63396565099983
 30
0.0
 11
-5.625208217356552
 21
11.67733725099983
 31
0.0
  0
LINE
  5
AD
330
1F
100
AcDbEntity
  8
0
100
AcDbLine
 10
-5.625208217356552
 20
11.67733725099983
 30
0.0
 11
-5.577802217356552
 21
11.70557825099983
 31
0.0
  0
LINE
  5
AE
330
1F
100
AcDbEntity
  8
0
100
AcDbLine
 10
-5.577802217356552
 20
11.70557825099983
 30
0.0
 11
-5.515267217356556
 21
11.71667445099983
 31
0.0
  0
LINE
  5
AF
330
1F
100
AcDbEntity
  8
0
100
AcDbLine
 10
-5.301433617356554
 20
12.36906385099983
 30
0.0
 11
-5.301433617356554
 21
12.45984445099984
 31
0.0
  0
LINE
  5
B0
330
1F
100
AcDbEntity
  8
0
100
AcDbLine
 10
-5.301433617356554
 20
12.45984445099984
 30
0.0
 11
-5.474921417356556
 21
12.45984445099984
 31
0.0
  0
LINE
  5
B1
330
1F
100
AcDbEntity
  8
0
100
AcDbLine
 10
-5.474921417356556
 20
12.45984445099984
 30
0.0
 11
-5.474921417356556
 21
12.55970105099983
 31
0.0
  0
LINE
  5
B2
330
1F
100
AcDbEntity
  8
0
100
AcDbLine
 10
-5.474921417356556
 20
12.55970105099983
 30
0.0
 11
-5.55561301735655
 21
12.55970105099983
 31
0.0
  0
LINE
  5
B3
330
1F
100
AcDbEntity
  8
0
100
AcDbLine
 10
-5.55561301735655
 20
12.55970105099983
 30
0.0
 11
-5.55561301735655
 21
12.45984445099984
 31
0.0
  0
LINE
  5
B4
330
1F
100
AcDbEntity
  8
0
100
AcDbLine
 10
-5.55561301735655
 20
12.45984445099984
 30
0.0
 11
-5.986304417356552
 21
12.45984445099984
 31
0.0
  0
LINE
  5
B5
330
1F
100
AcDbEntity
  8
0
100
AcDbLine
 10
-5.986304417356552
 20
12.45984445099984
 30
0.0
 11
-5.986304417356552
 21
12.36805685099984
 31
0.0
  0
LINE
  5
B6
330
1F
100
AcDbEntity
  8
0
100
AcDbLine
 10
-5.986304417356552
 20
12.36805685099984
 30
0.0
 11
-5.563681817356553
 21
12.06142845099983
 31
0.0
  0
LINE
  5
B7
330
1F
100
AcDbEntity
  8
0
100
AcDbLine
 10
-5.563681817356553
 20
12.06142845099983
 30
0.0
 11
-5.474921417356556
 21
12.06142845099983
 31
0.0
  0
LINE
  5
B8
330
1F
100
AcDbEntity
  8
0
100
AcDbLine
 10
-5.474921417356556
 20
12.06142845099983
 30
0.0
 11
-5.474921417356556
 21
12.36906385099983
 31
0.0
  0
LINE
  5
B9
330
1F
100
AcDbEntity
  8
0
100
AcDbLine
 10
-5.474921417356556
 20
12.36906385099983
 30
0.0
 11
-5.301433617356554
 21
12.36906385099983
 31
0.0
  0
LINE
  5
BA
330
1F
100
AcDbEntity
  8
0
100
AcDbLine
 10
-5.55561301735655
 20
12.14615445099983
 30
0.0
 11
-5.869301617356554
 21
12.36906385099983
 31
0.0
  0
LINE
  5
BB
330
1F
100
AcDbEntity
  8
0
100
AcDbLine
 10
-5.869301617356554
 20
12.36906385099983
 30
0.0
 11
-5.55561301735655
 21
12.36906385099983
 31
0.0
  0
LINE
  5
BC
330
1F
100
AcDbEntity
  8
0
100
AcDbLine
 10
-5.55561301735655
 20
12.36906385099983
 30
0.0
 11
-5.55561301735655
 21
12.14615445099983
 31
0.0
  0
LINE
  5
BD
330
1F
100
AcDbEntity
  8
0
100
AcDbLine
 10
-9.691085017356551
 20
7.128371850999835
 30
0.0
 11
-4.901433617356549
 21
7.128371850999835
 31
0.0
  0
LINE
  5
BE
330
1F
100
AcDbEntity
  8
0
100
AcDbLine
 10
-5.004961417356554
 20
7.514742650999842
 30
0.0
 11
-4.901433617356549
 21
7.128371850999835
 31
0.0
  0
LINE
  5
BF
330
1F
100
AcDbEntity
  8
0
100
AcDbLine
 10
-4.901433617356549
 20
7.128371850999835
 30
0.0
 11
-4.797905617356552
 21
7.514742650999842
 31
0.0
  0
LINE
  5
C0
330
1F
100
AcDbEntity
  8
0
100
AcDbLine
 10
-4.797905617356552
 20
8.382003450999834
 30
0.0
 11
-4.901433617356549
 21
8.768374250999834
 31
0.0
  0
LINE
  5
C1
330
1F
100
AcDbEntity
  8
0
100
AcDbLine
 10
-4.901433617356549
 20
8.768374250999834
 30
0.0
 11
-5.004961417356554
 21
8.382003450999834
 31
0.0
  0
LINE
  5
C2
330
1F
100
AcDbEntity
  8
0
100
AcDbLine
 10
-4.901433617356549
 20
7.128371850999835
 30
0.0
 11
-4.901433617356549
 21
8.768374250999834
 31
0.0
  0
LINE
  5
C3
330
1F
100
AcDbEntity
  8
0
100
AcDbLine
 10
-5.091475617356552
 20
0.7184870509998367
 30
0.0
 11
-5.015627217356553
 21
0.7683650509998373
 31
0.0
  0
LINE
  5
C4
330
1F
100
AcDbEntity
  8
0
100
AcDbLine
 10
-5.015627217356553
 20
0.7683650509998373
 30
0.0
 11
-5.110949017356552
 21
0.9133190509998371
 31
0.0
  0
LINE
  5
C5
330
1F
100
AcDbEntity
  8
0
100
AcDbLine
 10
-5.110949017356552
 20
0.9133190509998371
 30
0.0
 11
-5.027516817356552
 21
0.9681834509998369
 31
0.0
  0
LINE
  5
C6
330
1F
100
AcDbEntity
  8
0
100
AcDbLine
 10
-5.027516817356552
 20
0.9681834509998369
 30
0.0
 11
-5.071852817356553
 21
1.035604450999834
 31
0.0
  0
LINE
  5
C7
330
1F
100
AcDbEntity
  8
0
100
AcDbLine
 10
-5.071852817356553
 20
1.035604450999834
 30
0.0
 11
-5.155284817356556
 21
0.9807398509998362
 31
0.0
  0
LINE
  5
C8
330
1F
100
AcDbEntity
  8
0
100
AcDbLine
 10
-5.155284817356556
 20
0.9807398509998362
 30
0.0
 11
-5.391924217356552
 21
1.340595650999836
 31
0.0
  0
LINE
  5
C9
330
1F
100
AcDbEntity
  8
0
100
AcDbLine
 10
-5.391924217356552
 20
1.340595650999836
 30
0.0
 11
-5.468615017356554
 21
1.290163850999832
 31
0.0
  0
LINE
  5
CA
330
1F
100
AcDbEntity
  8
0
100
AcDbLine
 10
-5.468615017356554
 20
1.290163850999832
 30
0.0
 11
-5.492606417356551
 21
0.7685756509998354
 31
0.0
  0
LINE
  5
CB
330
1F
100
AcDbEntity
  8
0
100
AcDbLine
 10
-5.492606417356551
 20
0.7685756509998354
 30
0.0
 11
-5.443837817356549
 21
0.6944132509998352
 31
0.0
  0
LINE
  5
CC
330
1F
100
AcDbEntity
  8
0
100
AcDbLine
 10
-5.443837817356549
 20
0.6944132509998352
 30
0.0
 11
-5.186797217356549
 21
0.8634410509998365
 31
0.0
  0
LINE
  5
CD
330
1F
100
AcDbEntity
  8
0
100
AcDbLine
 10
-5.186797217356549
 20
0.8634410509998365
 30
0.0
 11
-5.091475617356552
 21
0.7184870509998367
 31
0.0
  0
LINE
  5
CE
330
1F
100
AcDbEntity
  8
0
100
AcDbLine
 10
-5.417382017356553
 20
0.808385850999836
 30
0.0
 11
-5.403487417356554
 21
1.192959250999835
 31
0.0
  0
LINE
  5
CF
330
1F
100
AcDbEntity
  8
0
100
AcDbLine
 10
-5.403487417356554
 20
1.192959250999835
 30
0.0
 11
-5.23113321735655
 21
0.930862050999839
 31
0.0
  0
LINE
  5
D0
330
1F
100
AcDbEntity
  8
0
100
AcDbLine
 10
-5.23113321735655
 20
0.930862050999839
 30
0.0
 11
-5.417382017356553
 21
0.808385850999836
 31
0.0
  0
LINE
  5
D1
330
1F
100
AcDbEntity
  8
0
100
AcDbLine
 10
-4.571663617356541
 20
1.060314450999837
 30
0.0
 11
-4.45536421735655
 21
1.136793050999837
 31
0.0
  0
LINE
  5
D2
330
1F
100
AcDbEntity
  8
0
100
AcDbLine
 10
-4.45536421735655
 20
1.136793050999837
 30
0.0
 11
-4.537938617356552
 21
1.262362250999835
 31
0.0
  0
LINE
  5
D3
330
1F
100
AcDbEntity
  8
0
100
AcDbLine
 10
-4.537938617356552
 20
1.262362250999835
 30
0.0
 11
-4.654241217356549
 21
1.185883650999835
 31
0.0
  0
LINE
  5
D4
330
1F
100
AcDbEntity
  8
0
100
AcDbLine
 10
-4.654241217356549
 20
1.185883650999835
 30
0.0
 11
-4.571663617356541
 21
1.060314450999837
 31
0.0
  0
LINE
  5
D5
330
1F
100
AcDbEntity
  8
0
100
AcDbLine
 10
-4.094832617356554
 20
1.373876450999838
 30
0.0
 11
-3.692839817356551
 21
1.638225850999837
 31
0.0
  0
LINE
  5
D6
330
1F
100
AcDbEntity
  8
0
100
AcDbLine
 10
-3.692839817356551
 20
1.638225850999837
 30
0.0
 11
-3.740499017356556
 21
1.710703650999833
 31
0.0
  0
LINE
  5
D7
330
1F
100
AcDbEntity
  8
0
100
AcDbLine
 10
-3.740499017356556
 20
1.710703650999833
 30
0.0
 11
-4.058217617356555
 21
1.501772650999836
 31
0.0
  0
LINE
  5
D8
330
1F
100
AcDbEntity
  8
0
100
AcDbLine
 10
-4.058217617356555
 20
1.501772650999836
 30
0.0
 11
-4.066567217356553
 21
1.553019250999836
 31
0.0
  0
LINE
  5
D9
330
1F
100
AcDbEntity
  8
0
100
AcDbLine
 10
-4.066567217356553
 20
1.553019250999836
 30
0.0
 11
-4.057842217356553
 21
1.605837650999834
 31
0.0
  0
LINE
  5
DA
330
1F
100
AcDbEntity
  8
0
100
AcDbLine
 10
-4.057842217356553
 20
1.605837650999834
 30
0.0
 11
-4.003643017356554
 21
1.727189250999831
 31
0.0
  0
LINE
  5
DB
330
1F
100
AcDbEntity
  8
0
100
AcDbLine
 10
-4.003643017356554
 20
1.727189250999831
 30
0.0
 11
-3.970546617356554
 21
1.785169650999833
 31
0.0
  0
LINE
  5
DC
330
1F
100
AcDbEntity
  8
0
100
AcDbLine
 10
-3.970546617356554
 20
1.785169650999833
 30
0.0
 11
-3.938756617356554
 21
1.857984450999835
 31
0.0
  0
LINE
  5
DD
330
1F
100
AcDbEntity
  8
0
100
AcDbLine
 10
-3.938756617356554
 20
1.857984450999835
 30
0.0
 11
-3.926857817356542
 21
1.926169850999833
 31
0.0
  0
LINE
  5
DE
330
1F
100
AcDbEntity
  8
0
100
AcDbLine
 10
-3.926857817356542
 20
1.926169850999833
 30
0.0
 11
-3.93680041735655
 21
1.990855050999834
 31
0.0
  0
LINE
  5
DF
330
1F
100
AcDbEntity
  8
0
100
AcDbLine
 10
-3.93680041735655
 20
1.990855050999834
 30
0.0
 11
-3.965502217356554
 21
2.052862050999838
 31
0.0
  0
LINE
  5
E0
330
1F
100
AcDbEntity
  8
0
100
AcDbLine
 10
-3.965502217356554
 20
2.052862050999838
 30
0.0
 11
-4.026381617356557
 21
2.114231450999838
 31
0.0
  0
LINE
  5
E1
330
1F
100
AcDbEntity
  8
0
100
AcDbLine
 10
-4.026381617356557
 20
2.114231450999838
 30
0.0
 11
-4.102568817356553
 21
2.143806050999834
 31
0.0
  0
LINE
  5
E2
330
1F
100
AcDbEntity
  8
0
100
AcDbLine
 10
-4.102568817356553
 20
2.143806050999834
 30
0.0
 11
-4.186522617356555
 21
2.139300050999836
 31
0.0
  0
LINE
  5
E3
330
1F
100
AcDbEntity
  8
0
100
AcDbLine
 10
-4.186522617356555
 20
2.139300050999836
 30
0.0
 11
-4.273210817356551
 21
2.100402450999836
 31
0.0
  0
LINE
  5
E4
330
1F
100
AcDbEntity
  8
0
100
AcDbLine
 10
-4.273210817356551
 20
2.100402450999836
 30
0.0
 11
-4.344695217356553
 21
2.032873050999832
 31
0.0
  0
LINE
  5
E5
330
1F
100
AcDbEntity
  8
0
100
AcDbLine
 10
-4.344695217356553
 20
2.032873050999832
 30
0.0
 11
-4.380168817356554
 21
1.952807250999835
 31
0.0
  0
LINE
  5
E6
330
1F
100
AcDbEntity
  8
0
100
AcDbLine
 10
-4.380168817356554
 20
1.952807250999835
 30
0.0
 11
-4.378212817356554
 21
1.863554050999837
 31
0.0
  0
LINE
  5
E7
330
1F
100
AcDbEntity
  8
0
100
AcDbLine
 10
-4.378212817356554
 20
1.863554050999837
 30
0.0
 11
-4.336834017356553
 21
1.771253450999834
 31
0.0
  0
LINE
  5
E8
330
1F
100
AcDbEntity
  8
0
100
AcDbLine
 10
-4.336834017356553
 20
1.771253450999834
 30
0.0
 11
-4.252382617356552
 21
1.809885650999839
 31
0.0
  0
LINE
  5
E9
330
1F
100
AcDbEntity
  8
0
100
AcDbLine
 10
-4.252382617356552
 20
1.809885650999839
 30
0.0
 11
-4.286916417356553
 21
1.878924050999837
 31
0.0
  0
LINE
  5
EA
330
1F
100
AcDbEntity
  8
0
100
AcDbLine
 10
-4.286916417356553
 20
1.878924050999837
 30
0.0
 11
-4.291872417356552
 21
1.936024050999834
 31
0.0
  0
LINE
  5
EB
330
1F
100
AcDbEntity
  8
0
100
AcDbLine
 10
-4.291872417356552
 20
1.936024050999834
 30
0.0
 11
-4.273369617356553
 21
1.986822050999834
 31
0.0
  0
LINE
  5
EC
330
1F
100
AcDbEntity
  8
0
100
AcDbLine
 10
-4.273369617356553
 20
1.986822050999834
 30
0.0
 11
-4.231426217356549
 21
2.027682050999837
 31
0.0
  0
LINE
  5
ED
330
1F
100
AcDbEntity
  8
0
100
AcDbLine
 10
-4.231426217356549
 20
2.027682050999837
 30
0.0
 11
-4.17700421735655
 21
2.051397250999839
 31
0.0
  0
LINE
  5
EE
330
1F
100
AcDbEntity
  8
0
100
AcDbLine
 10
-4.17700421735655
 20
2.051397250999839
 30
0.0
 11
-4.12691261735655
 21
2.054159050999832
 31
0.0
  0
LINE
  5
EF
330
1F
100
AcDbEntity
  8
0
100
AcDbLine
 10
-4.12691261735655
 20
2.054159050999832
 30
0.0
 11
-4.081700817356551
 21
2.036808250999833
 31
0.0
  0
LINE
  5
F0
330
1F
100
AcDbEntity
  8
0
100
AcDbLine
 10
-4.081700817356551
 20
2.036808250999833
 30
0.0
 11
-4.046117417356552
 21
2.001055450999835
 31
0.0
  0
LINE
  5
F1
330
1F
100
AcDbEntity
  8
0
100
AcDbLine
 10
-4.046117417356552
 20
2.001055450999835
 30
0.0
 11
-4.026525017356553
 21
1.958410250999837
 31
0.0
  0
LINE
  5
F2
330
1F
100
AcDbEntity
  8
0
100
AcDbLine
 10
-4.026525017356553
 20
1.958410250999837
 30
0.0
 11
-4.020925217356544
 21
1.915012650999836
 31
0.0
  0
LINE
  5
F3
330
1F
100
AcDbEntity
  8
0
100
AcDbLine
 10
-4.020925217356544
 20
1.915012650999836
 30
0.0
 11
-4.029048817356549
 21
1.868624450999834
 31
0.0
  0
LINE
  5
F4
330
1F
100
AcDbEntity
  8
0
100
AcDbLine
 10
-4.029048817356549
 20
1.868624450999834
 30
0.0
 11
-4.049504817356551
 21
1.818958650999837
 31
0.0
  0
LINE
  5
F5
330
1F
100
AcDbEntity
  8
0
100
AcDbLine
 10
-4.049504817356551
 20
1.818958650999837
 30
0.0
 11
-4.081493417356551
 21
1.759292250999835
 31
0.0
  0
LINE
  5
F6
330
1F
100
AcDbEntity
  8
0
100
AcDbLine
 10
-4.081493417356551
 20
1.759292250999835
 30
0.0
 11
-4.129723417356553
 21
1.652730850999839
 31
0.0
  0
LINE
  5
F7
330
1F
100
AcDbEntity
  8
0
100
AcDbLine
 10
-4.129723417356553
 20
1.652730850999839
 30
0.0
 11
-4.151296217356551
 21
1.558869450999835
 31
0.0
  0
LINE
  5
F8
330
1F
100
AcDbEntity
  8
0
100
AcDbLine
 10
-4.151296217356551
 20
1.558869450999835
 30
0.0
 11
-4.141515417356551
 21
1.468726650999837
 31
0.0
  0
LINE
  5
F9
330
1F
100
AcDbEntity
  8
0
100
AcDbLine
 10
-4.141515417356551
 20
1.468726650999837
 30
0.0
 11
-4.094832617356554
 21
1.373876450999838
 31
0.0
  0
LINE
  5
FA
330
1F
100
AcDbEntity
  8
0
100
AcDbLine
 10
-5.831543617356553
 20
0.2318218509998369
 30
0.0
 11
-5.889235617356553
 21
0.3195536509998365
 31
0.0
  0
LINE
  5
FB
330
1F
100
AcDbEntity
  8
0
100
AcDbLine
 10
-5.750908617356552
 20
0.7037426509998367
 30
0.0
 11
-5.79911721735655
 21
0.7558192509998347
 31
0.0
  0
LINE
  5
FC
330
1F
100
AcDbEntity
  8
0
100
AcDbLine
 10
-5.79911721735655
 20
0.7558192509998347
 30
0.0
 11
-5.828095217356552
 21
0.7786524509998327
 31
0.0
  0
LINE
  5
FD
330
1F
100
AcDbEntity
  8
0
100
AcDbLine
 10
-5.828095217356552
 20
0.7786524509998327
 30
0.0
 11
-5.850664417356554
 21
0.7917384509998354
 31
0.0
  0
LINE
  5
FE
330
1F
100
AcDbEntity
  8
0
100
AcDbLine
 10
-5.850664417356554
 20
0.7917384509998354
 30
0.0
 11
-5.889389817356554
 21
0.8081614509998369
 31
0.0
  0
LINE
  5
FF
330
1F
100
AcDbEntity
  8
0
100
AcDbLine
 10
-5.889389817356554
 20
0.8081614509998369
 30
0.0
 11
-5.937863817356552
 21
0.8181758509998359
 31
0.0
  0
LINE
  5
100
330
1F
100
AcDbEntity
  8
0
100
AcDbLine
 10
-5.937863817356552
 20
0.8181758509998359
 30
0.0
 11
-5.979927817356551
 21
0.8184398509998351
 31
0.0
  0
LINE
  5
101
330
1F
100
AcDbEntity
  8
0
100
AcDbLine
 10
-5.979927817356551
 20
0.8184398509998351
 30
0.0
 11
-6.005834217356552
 21
0.8153682509998313
 31
0.0
  0
LINE
  5
102
330
1F
100
AcDbEntity
  8
0
100
AcDbLine
 10
-6.005834217356552
 20
0.8153682509998313
 30
0.0
 11
-6.041487817356551
 21
0.8058848509998374
 31
0.0
  0
LINE
  5
103
330
1F
100
AcDbEntity
  8
0
100
AcDbLine
 10
-6.041487817356551
 20
0.8058848509998374
 30
0.0
 11
-6.086888817356552
 21
0.7899928509998352
 31
0.0
  0
LINE
  5
104
330
1F
100
AcDbEntity
  8
0
100
AcDbLine
 10
-6.086888817356552
 20
0.7899928509998352
 30
0.0
 11
-6.125881217356551
 21
0.7643520509998326
 31
0.0
  0
LINE
  5
105
330
1F
100
AcDbEntity
  8
0
100
AcDbLine
 10
-6.125881217356551
 20
0.7643520509998326
 30
0.0
 11
-6.15846181735655
 21
0.7289638509998368
 31
0.0
  0
LINE
  5
106
330
1F
100
AcDbEntity
  8
0
100
AcDbLine
 10
-6.15846181735655
 20
0.7289638509998368
 30
0.0
 11
-6.181295017356551
 21
0.6999858509998376
 31
0.0
  0
LINE
  5
107
330
1F
100
AcDbEntity
  8
0
100
AcDbLine
 10
-6.181295017356551
 20
0.6999858509998376
 30
0.0
 11
-6.194381017356554
 21
0.6774166509998388
 31
0.0
  0
LINE
  5
108
330
1F
100
AcDbEntity
  8
0
100
AcDbLine
 10
-6.194381017356554
 20
0.6774166509998388
 30
0.0
 11
-6.210804017356553
 21
0.6386912509998351
 31
0.0
  0
LINE
  5
109
330
1F
100
AcDbEntity
  8
0
100
AcDbLine
 10
-6.210804017356553
 20
0.6386912509998351
 30
0.0
 11
-6.220818217356554
 21
0.5902172509998346
 31
0.0
  0
LINE
  5
10A
330
1F
100
AcDbEntity
  8
0
100
AcDbLine
 10
-6.220818217356554
 20
0.5902172509998346
 30
0.0
 11
-6.221082217356551
 21
0.5481532509998326
 31
0.0
  0
LINE
  5
10B
330
1F
100
AcDbEntity
  8
0
100
AcDbLine
 10
-6.221082217356551
 20
0.5481532509998326
 30
0.0
 11
-6.218010617356552
 21
0.522246850999837
 31
0.0
  0
LINE
  5
10C
330
1F
100
AcDbEntity
  8
0
100
AcDbLine
 10
-6.218010617356552
 20
0.522246850999837
 30
0.0
 11
-6.20852741735655
 21
0.486593250999835
 31
0.0
  0
LINE
  5
10D
330
1F
100
AcDbEntity
  8
0
100
AcDbLine
 10
-6.20852741735655
 20
0.486593250999835
 30
0.0
 11
-6.192635417356554
 21
0.4411906509998347
 31
0.0
  0
LINE
  5
10E
330
1F
100
AcDbEntity
  8
0
100
AcDbLine
 10
-6.192635417356554
 20
0.4411906509998347
 30
0.0
 11
-6.166994417356554
 21
0.4021998509998359
 31
0.0
  0
LINE
  5
10F
330
1F
100
AcDbEntity
  8
0
100
AcDbLine
 10
-6.166994417356554
 20
0.4021998509998359
 30
0.0
 11
-6.131606217356555
 21
0.3696192509998335
 31
0.0
  0
LINE
  5
110
330
1F
100
AcDbEntity
  8
0
100
AcDbLine
 10
-6.131606217356555
 20
0.3696192509998335
 30
0.0
 11
-6.102628217356552
 21
0.3467844509998361
 31
0.0
  0
LINE
  5
111
330
1F
100
AcDbEntity
  8
0
100
AcDbLine
 10
-6.102628217356552
 20
0.3467844509998361
 30
0.0
 11
-6.080059017356551
 21
0.3337000509998385
 31
0.0
  0
LINE
  5
112
330
1F
100
AcDbEntity
  8
0
100
AcDbLine
 10
-6.080059017356551
 20
0.3337000509998385
 30
0.0
 11
-6.041333817356554
 21
0.3172756509998353
 31
0.0
  0
LINE
  5
113
330
1F
100
AcDbEntity
  8
0
100
AcDbLine
 10
-6.041333817356554
 20
0.3172756509998353
 30
0.0
 11
-5.992859617356553
 21
0.3072628509998357
 31
0.0
  0
LINE
  5
114
330
1F
100
AcDbEntity
  8
0
100
AcDbLine
 10
-5.992859617356553
 20
0.3072628509998357
 30
0.0
 11
-5.950795817356551
 21
0.3069972509998316
 31
0.0
  0
LINE
  5
115
330
1F
100
AcDbEntity
  8
0
100
AcDbLine
 10
-5.950795817356551
 20
0.3069972509998316
 30
0.0
 11
-5.92488941735655
 21
0.3100704509998347
 31
0.0
  0
LINE
  5
116
330
1F
100
AcDbEntity
  8
0
100
AcDbLine
 10
-5.92488941735655
 20
0.3100704509998347
 30
0.0
 11
-5.889235617356553
 21
0.3195536509998365
 31
0.0
  0
LINE
  5
117
330
1F
100
AcDbEntity
  8
0
100
AcDbLine
 10
-5.889235617356553
 20
0.3195536509998365
 30
0.0
 11
-5.843833217356553
 21
0.335445650999833
 31
0.0
  0
LINE
  5
118
330
1F
100
AcDbEntity
  8
0
100
AcDbLine
 10
-5.843833217356553
 20
0.335445650999833
 30
0.0
 11
-5.804842417356552
 21
0.3610866509998334
 31
0.0
  0
LINE
  5
119
330
1F
100
AcDbEntity
  8
0
100
AcDbLine
 10
-5.804842417356552
 20
0.3610866509998334
 30
0.0
 11
-5.772261817356552
 21
0.3964748509998348
 31
0.0
  0
LINE
  5
11A
330
1F
100
AcDbEntity
  8
0
100
AcDbLine
 10
-5.772261817356552
 20
0.3964748509998348
 30
0.0
 11
-5.749427017356552
 21
0.425452850999834
 31
0.0
  0
LINE
  5
11B
330
1F
100
AcDbEntity
  8
0
100
AcDbLine
 10
-5.749427017356552
 20
0.425452850999834
 30
0.0
 11
-5.736342617356554
 21
0.4480220509998328
 31
0.0
  0
LINE
  5
11C
330
1F
100
AcDbEntity
  8
0
100
AcDbLine
 10
-5.736342617356554
 20
0.4480220509998328
 30
0.0
 11
-5.719918017356553
 21
0.4867472509998331
 31
0.0
  0
LINE
  5
11D
330
1F
100
AcDbEntity
  8
0
100
AcDbLine
 10
-5.719918017356553
 20
0.4867472509998331
 30
0.0
 11
-5.709905217356551
 21
0.5352214509998371
 31
0.0
  0
LINE
  5
11E
330
1F
100
AcDbEntity
  8
0
100
AcDbLine
 10
-5.709905217356551
 20
0.5352214509998371
 30
0.0
 11
-5.70963981735655
 21
0.5772852509998356
 31
0.0
  0
LINE
  5
11F
330
1F
100
AcDbEntity
  8
0
100
AcDbLine
 10
-5.70963981735655
 20
0.5772852509998356
 30
0.0
 11
-5.712712817356553
 21
0.6031916509998367
 31
0.0
  0
LINE
  5
120
330
1F
100
AcDbEntity
  8
0
100
AcDbLine
 10
-5.712712817356553
 20
0.6031916509998367
 30
0.0
 11
-5.722194617356553
 21
0.6388454509998367
 31
0.0
  0
LINE
  5
121
330
1F
100
AcDbEntity
  8
0
100
AcDbLine
 10
-5.722194617356553
 20
0.6388454509998367
 30
0.0
 11
-5.750908617356552
 21
0.7037426509998367
 31
0.0
  0
LINE
  5
122
330
1F
100
AcDbEntity
  8
0
100
AcDbLine
 10
-6.612302417356549
 20
-0.8842457490001615
 30
0.0
 11
-6.346360017356553
 21
-0.585457349000162
 31
0.0
  0
LINE
  5
123
330
1F
100
AcDbEntity
  8
0
100
AcDbLine
 10
-6.346360017356553
 20
-0.585457349000162
 30
0.0
 11
-6.72606741735655
 21
-0.7112445490001669
 31
0.0
  0
LINE
  5
124
330
1F
100
AcDbEntity
  8
0
100
AcDbLine
 10
-2.571184617356551
 20
2.020991050999834
 30
0.0
 11
-2.837126817356555
 21
1.722202650999834
 31
0.0
  0
LINE
  5
125
330
1F
100
AcDbEntity
  8
0
100
AcDbLine
 10
-2.837126817356555
 20
1.722202650999834
 30
0.0
 11
-2.457421017356554
 21
1.847990050999837
 31
0.0
  0
LINE
  5
126
330
1F
100
AcDbEntity
  8
0
100
AcDbLine
 10
-7.181891617356555
 20
-1.134898749000165
 30
0.0
 11
-6.346360017356553
 21
-0.585457349000162
 31
0.0
  0
LINE
  5
127
330
1F
100
AcDbEntity
  8
0
100
AcDbLine
 10
-5.211455417356551
 20
-14.33623394900017
 30
0.0
 11
-4.730330617356551
 21
-14.33623394900017
 31
0.0
  0
LINE
  5
128
330
1F
100
AcDbEntity
  8
0
100
AcDbLine
 10
-4.730330617356551
 20
-14.33623394900017
 30
0.0
 11
-4.730330617356551
 21
-14.24948994900016
 31
0.0
  0
LINE
  5
129
330
1F
100
AcDbEntity
  8
0
100
AcDbLine
 10
-4.730330617356551
 20
-14.24948994900016
 30
0.0
 11
-5.110591817356549
 21
-14.24948994900016
 31
0.0
  0
LINE
  5
12A
330
1F
100
AcDbEntity
  8
0
100
AcDbLine
 10
-5.110591817356549
 20
-14.24948994900016
 30
0.0
 11
-5.089409617356551
 21
-14.20208394900016
 31
0.0
  0
LINE
  5
12B
330
1F
100
AcDbEntity
  8
0
100
AcDbLine
 10
-5.089409617356551
 20
-14.20208394900016
 30
0.0
 11
-5.053099817356551
 21
-14.16274694900016
 31
0.0
  0
LINE
  5
12C
330
1F
100
AcDbEntity
  8
0
100
AcDbLine
 10
-5.053099817356551
 20
-14.16274694900016
 30
0.0
 11
-4.941140017356548
 21
-14.09113274900016
 31
0.0
  0
LINE
  5
12D
330
1F
100
AcDbEntity
  8
0
100
AcDbLine
 10
-4.941140017356548
 20
-14.09113274900016
 30
0.0
 11
-4.881627617356551
 21
-14.06087374900016
 31
0.0
  0
LINE
  5
12E
330
1F
100
AcDbEntity
  8
0
100
AcDbLine
 10
-4.881627617356551
 20
-14.06087374900016
 30
0.0
 11
-4.815059617356549
 21
-14.01750154900016
 31
0.0
  0
LINE
  5
12F
330
1F
100
AcDbEntity
  8
0
100
AcDbLine
 10
-4.815059617356549
 20
-14.01750154900016
 30
0.0
 11
-4.767650617356553
 21
-13.96706894900016
 31
0.0
  0
LINE
  5
130
330
1F
100
AcDbEntity
  8
0
100
AcDbLine
 10
-4.767650617356553
 20
-13.96706894900016
 30
0.0
 11
-4.740419817356553
 21
-13.90755894900016
 31
0.0
  0
LINE
  5
131
330
1F
100
AcDbEntity
  8
0
100
AcDbLine
 10
-4.740419817356553
 20
-13.90755894900016
 30
0.0
 11
-4.730330617356551
 21
-13.83997994900016
 31
0.0
  0
LINE
  5
132
330
1F
100
AcDbEntity
  8
0
100
AcDbLine
 10
-4.730330617356551
 20
-13.83997994900016
 30
0.0
 11
-4.747478417356554
 21
-13.75525394900016
 31
0.0
  0
LINE
  5
133
330
1F
100
AcDbEntity
  8
0
100
AcDbLine
 10
-4.747478417356554
 20
-13.75525394900016
 30
0.0
 11
-4.794884417356548
 21
-13.68868294900016
 31
0.0
  0
LINE
  5
134
330
1F
100
AcDbEntity
  8
0
100
AcDbLine
 10
-4.794884417356548
 20
-13.68868294900016
 30
0.0
 11
-4.867507217356551
 21
-13.64631994900016
 31
0.0
  0
LINE
  5
135
330
1F
100
AcDbEntity
  8
0
100
AcDbLine
 10
-4.867507217356551
 20
-13.64631994900016
 30
0.0
 11
-4.961312017356556
 21
-13.63119094900016
 31
0.0
  0
LINE
  5
136
330
1F
100
AcDbEntity
  8
0
100
AcDbLine
 10
-4.961312017356556
 20
-13.63119094900016
 30
0.0
 11
-5.058141217356551
 21
-13.64833794900016
 31
0.0
  0
LINE
  5
137
330
1F
100
AcDbEntity
  8
0
100
AcDbLine
 10
-5.058141217356551
 20
-13.64833794900016
 30
0.0
 11
-5.131774217356551
 21
-13.69574394900016
 31
0.0
  0
LINE
  5
138
330
1F
100
AcDbEntity
  8
0
100
AcDbLine
 10
-5.131774217356551
 20
-13.69574394900016
 30
0.0
 11
-5.179180217356551
 21
-13.77139254900016
 31
0.0
  0
LINE
  5
139
330
1F
100
AcDbEntity
  8
0
100
AcDbLine
 10
-5.179180217356551
 20
-13.77139254900016
 30
0.0
 11
-5.195317817356551
 21
-13.87124754900016
 31
0.0
  0
LINE
  5
13A
330
1F
100
AcDbEntity
  8
0
100
AcDbLine
 10
-5.195317817356551
 20
-13.87124754900016
 30
0.0
 11
-5.103530017356555
 21
-13.88536874900016
 31
0.0
  0
LINE
  5
13B
330
1F
100
AcDbEntity
  8
0
100
AcDbLine
 10
-5.103530017356555
 20
-13.88536874900016
 30
0.0
 11
-5.094454217356549
 21
-13.80871234900016
 31
0.0
  0
LINE
  5
13C
330
1F
100
AcDbEntity
  8
0
100
AcDbLine
 10
-5.094454217356549
 20
-13.80871234900016
 30
0.0
 11
-5.06722021735655
 21
-13.75827914900016
 31
0.0
  0
LINE
  5
13D
330
1F
100
AcDbEntity
  8
0
100
AcDbLine
 10
-5.06722021735655
 20
-13.75827914900016
 30
0.0
 11
-5.023848617356552
 21
-13.72600294900016
 31
0.0
  0
LINE
  5
13E
330
1F
100
AcDbEntity
  8
0
100
AcDbLine
 10
-5.023848617356552
 20
-13.72600294900016
 30
0.0
 11
-4.966356617356548
 21
-13.71490834900016
 31
0.0
  0
LINE
  5
13F
330
1F
100
AcDbEntity
  8
0
100
AcDbLine
 10
-4.966356617356548
 20
-13.71490834900016
 30
0.0
 11
-4.907854417356553
 21
-13.72499434900016
 31
0.0
  0
LINE
  5
140
330
1F
100
AcDbEntity
  8
0
100
AcDbLine
 10
-4.907854417356553
 20
-13.72499434900016
 30
0.0
 11
-4.864482817356549
 21
-13.75021014900016
 31
0.0
  0
LINE
  5
141
330
1F
100
AcDbEntity
  8
0
100
AcDbLine
 10
-4.864482817356549
 20
-13.75021014900016
 30
0.0
 11
-4.836238817356552
 21
-13.78954734900016
 31
0.0
  0
LINE
  5
142
330
1F
100
AcDbEntity
  8
0
100
AcDbLine
 10
-4.836238817356552
 20
-13.78954734900016
 30
0.0
 11
-4.826152817356554
 21
-13.83897134900016
 31
0.0
  0
LINE
  5
143
330
1F
100
AcDbEntity
  8
0
100
AcDbLine
 10
-4.826152817356554
 20
-13.83897134900016
 30
0.0
 11
-4.833214617356552
 21
-13.88536874900016
 31
0.0
  0
LINE
  5
144
330
1F
100
AcDbEntity
  8
0
100
AcDbLine
 10
-4.833214617356552
 20
-13.88536874900016
 30
0.0
 11
-4.852379617356551
 21
-13.92470594900016
 31
0.0
  0
LINE
  5
145
330
1F
100
AcDbEntity
  8
0
100
AcDbLine
 10
-4.852379617356551
 20
-13.92470594900016
 30
0.0
 11
-4.884655017356554
 21
-13.95900014900016
 31
0.0
  0
LINE
  5
146
330
1F
100
AcDbEntity
  8
0
100
AcDbLine
 10
-4.884655017356554
 20
-13.95900014900016
 30
0.0
 11
-4.929036617356552
 21
-13.98925894900016
 31
0.0
  0
LINE
  5
147
330
1F
100
AcDbEntity
  8
0
100
AcDbLine
 10
-4.929036617356552
 20
-13.98925894900016
 30
0.0
 11
-4.988546017356554
 21
-14.02153674900016
 31
0.0
  0
LINE
  5
148
330
1F
100
AcDbEntity
  8
0
100
AcDbLine
 10
-4.988546017356554
 20
-14.02153674900016
 30
0.0
 11
-5.08739241735655
 21
-14.08407254900016
 31
0.0
  0
LINE
  5
149
330
1F
100
AcDbEntity
  8
0
100
AcDbLine
 10
-5.08739241735655
 20
-14.08407254900016
 30
0.0
 11
-5.156987817356555
 21
-14.15064274900016
 31
0.0
  0
LINE
  5
14A
330
1F
100
AcDbEntity
  8
0
100
AcDbLine
 10
-5.156987817356555
 20
-14.15064274900016
 30
0.0
 11
-5.198345217356554
 21
-14.23133434900016
 31
0.0
  0
LINE
  5
14B
330
1F
100
AcDbEntity
  8
0
100
AcDbLine
 10
-5.198345217356554
 20
-14.23133434900016
 30
0.0
 11
-5.211455417356551
 21
-14.33623394900017
 31
0.0
  0
LINE
  5
14C
330
1F
100
AcDbEntity
  8
0
100
AcDbLine
 10
-4.461226617356551
 20
-13.99430354900016
 30
0.0
 11
-4.446096017356549
 21
-14.15265994900016
 31
0.0
  0
LINE
  5
14D
330
1F
100
AcDbEntity
  8
0
100
AcDbLine
 10
-4.446096017356549
 20
-14.15265994900016
 30
0.0
 11
-4.398690017356555
 21
-14.26562854900016
 31
0.0
  0
LINE
  5
14E
330
1F
100
AcDbEntity
  8
0
100
AcDbLine
 10
-4.398690017356555
 20
-14.26562854900016
 30
0.0
 11
-4.323040017356552
 21
-14.33421674900016
 31
0.0
  0
LINE
  5
14F
330
1F
100
AcDbEntity
  8
0
100
AcDbLine
 10
-4.323040017356552
 20
-14.33421674900016
 30
0.0
 11
-4.21814181735655
 21
-14.35640674900016
 31
0.0
  0
LINE
  5
150
330
1F
100
AcDbEntity
  8
0
100
AcDbLine
 10
-4.21814181735655
 20
-14.35640674900016
 30
0.0
 11
-4.114251017356554
 21
-14.33421674900016
 31
0.0
  0
LINE
  5
151
330
1F
100
AcDbEntity
  8
0
100
AcDbLine
 10
-4.114251017356554
 20
-14.33421674900016
 30
0.0
 11
-4.038604017356551
 21
-14.26562854900016
 31
0.0
  0
LINE
  5
152
330
1F
100
AcDbEntity
  8
0
100
AcDbLine
 10
-4.038604017356551
 20
-14.26562854900016
 30
0.0
 11
-3.99220501735655
 21
-14.15265994900016
 31
0.0
  0
LINE
  5
153
330
1F
100
AcDbEntity
  8
0
100
AcDbLine
 10
-3.99220501735655
 20
-14.15265994900016
 30
0.0
 11
-3.976067417356549
 21
-13.99430354900016
 31
0.0
  0
LINE
  5
154
330
1F
100
AcDbEntity
  8
0
100
AcDbLine
 10
-3.976067417356549
 20
-13.99430354900016
 30
0.0
 11
-3.99220501735655
 21
-13.83695334900017
 31
0.0
  0
LINE
  5
155
330
1F
100
AcDbEntity
  8
0
100
AcDbLine
 10
-3.99220501735655
 20
-13.83695334900017
 30
0.0
 11
-4.011370017356553
 21
-13.77441834900016
 31
0.0
  0
LINE
  5
156
330
1F
100
AcDbEntity
  8
0
100
AcDbLine
 10
-4.011370017356553
 20
-13.77441834900016
 30
0.0
 11
-4.038604017356551
 21
-13.72297714900016
 31
0.0
  0
LINE
  5
157
330
1F
100
AcDbEntity
  8
0
100
AcDbLine
 10
-4.038604017356551
 20
-13.72297714900016
 30
0.0
 11
-4.114251017356554
 21
-13.65438894900016
 31
0.0
  0
LINE
  5
158
330
1F
100
AcDbEntity
  8
0
100
AcDbLine
 10
-4.114251017356554
 20
-13.65438894900016
 30
0.0
 11
-4.21814181735655
 21
-13.63119094900016
 31
0.0
  0
LINE
  5
159
330
1F
100
AcDbEntity
  8
0
100
AcDbLine
 10
-4.21814181735655
 20
-13.63119094900016
 30
0.0
 11
-4.323040017356552
 21
-13.65438894900016
 31
0.0
  0
LINE
  5
15A
330
1F
100
AcDbEntity
  8
0
100
AcDbLine
 10
-4.323040017356552
 20
-13.65438894900016
 30
0.0
 11
-4.398690017356555
 21
-13.72398654900016
 31
0.0
  0
LINE
  5
15B
330
1F
100
AcDbEntity
  8
0
100
AcDbLine
 10
-4.398690017356555
 20
-13.72398654900016
 30
0.0
 11
-4.446096017356549
 21
-13.83695334900017
 31
0.0
  0
LINE
  5
15C
330
1F
100
AcDbEntity
  8
0
100
AcDbLine
 10
-4.446096017356549
 20
-13.83695334900017
 30
0.0
 11
-4.461226617356551
 21
-13.99430354900016
 31
0.0
  0
LINE
  5
15D
330
1F
100
AcDbEntity
  8
0
100
AcDbLine
 10
-4.364394417356549
 20
-13.99430354900016
 30
0.0
 11
-4.356325417356554
 21
-13.87225694900016
 31
0.0
  0
LINE
  5
15E
330
1F
100
AcDbEntity
  8
0
100
AcDbLine
 10
-4.356325417356554
 20
-13.87225694900016
 30
0.0
 11
-4.331108817356554
 21
-13.78450434900016
 31
0.0
  0
LINE
  5
15F
330
1F
100
AcDbEntity
  8
0
100
AcDbLine
 10
-4.331108817356554
 20
-13.78450434900016
 30
0.0
 11
-4.28572001735655
 21
-13.73306314900016
 31
0.0
  0
LINE
  5
160
330
1F
100
AcDbEntity
  8
0
100
AcDbLine
 10
-4.28572001735655
 20
-13.73306314900016
 30
0.0
 11
-4.21814181735655
 21
-13.71490834900016
 31
0.0
  0
LINE
  5
161
330
1F
100
AcDbEntity
  8
0
100
AcDbLine
 10
-4.21814181735655
 20
-13.71490834900016
 30
0.0
 11
-4.151570817356553
 21
-13.73306314900016
 31
0.0
  0
LINE
  5
162
330
1F
100
AcDbEntity
  8
0
100
AcDbLine
 10
-4.151570817356553
 20
-13.73306314900016
 30
0.0
 11
-4.106182017356553
 21
-13.78450434900016
 31
0.0
  0
LINE
  5
163
330
1F
100
AcDbEntity
  8
0
100
AcDbLine
 10
-4.106182017356553
 20
-13.78450434900016
 30
0.0
 11
-4.080965417356553
 21
-13.87225694900016
 31
0.0
  0
LINE
  5
164
330
1F
100
AcDbEntity
  8
0
100
AcDbLine
 10
-4.080965417356553
 20
-13.87225694900016
 30
0.0
 11
-4.072896617356556
 21
-13.99430354900016
 31
0.0
  0
LINE
  5
165
330
1F
100
AcDbEntity
  8
0
100
AcDbLine
 10
-4.072896617356556
 20
-13.99430354900016
 30
0.0
 11
-4.080965417356553
 21
-14.11735814900016
 31
0.0
  0
LINE
  5
166
330
1F
100
AcDbEntity
  8
0
100
AcDbLine
 10
-4.080965417356553
 20
-14.11735814900016
 30
0.0
 11
-4.106182017356553
 21
-14.20510974900016
 31
0.0
  0
LINE
  5
167
330
1F
100
AcDbEntity
  8
0
100
AcDbLine
 10
-4.106182017356553
 20
-14.20510974900016
 30
0.0
 11
-4.151570817356553
 21
-14.25655034900016
 31
0.0
  0
LINE
  5
168
330
1F
100
AcDbEntity
  8
0
100
AcDbLine
 10
-4.151570817356553
 20
-14.25655034900016
 30
0.0
 11
-4.21814181735655
 21
-14.27369734900016
 31
0.0
  0
LINE
  5
169
330
1F
100
AcDbEntity
  8
0
100
AcDbLine
 10
-4.21814181735655
 20
-14.27369734900016
 30
0.0
 11
-4.28572001735655
 21
-14.25655034900016
 31
0.0
  0
LINE
  5
16A
330
1F
100
AcDbEntity
  8
0
100
AcDbLine
 10
-4.28572001735655
 20
-14.25655034900016
 30
0.0
 11
-4.331108817356554
 21
-14.20510974900016
 31
0.0
  0
LINE
  5
16B
330
1F
100
AcDbEntity
  8
0
100
AcDbLine
 10
-4.331108817356554
 20
-14.20510974900016
 30
0.0
 11
-4.356325417356554
 21
-14.11735814900016
 31
0.0
  0
LINE
  5
16C
330
1F
100
AcDbEntity
  8
0
100
AcDbLine
 10
-4.356325417356554
 20
-14.11735814900016
 30
0.0
 11
-4.364394417356549
 21
-13.99430354900016
 31
0.0
  0
LINE
  5
16D
330
1F
100
AcDbEntity
  8
0
100
AcDbLine
 10
-14.59174581735655
 20
-8.331627349000163
 30
0.0
 11
-14.59174581735655
 21
-14.73623314900017
 31
0.0
  0
LINE
  5
16E
330
1F
100
AcDbEntity
  8
0
100
AcDbLine
 10
5.408255782643457
 20
-8.331627349000163
 30
0.0
 11
5.408255782643457
 21
-14.73623314900017
 31
0.0
  0
LINE
  5
16F
330
1F
100
AcDbEntity
  8
0
100
AcDbLine
 10
-14.20537481735655
 20
-14.63270534900016
 30
0.0
 11
-14.59174581735655
 21
-14.73623314900017
 31
0.0
  0
LINE
  5
170
330
1F
100
AcDbEntity
  8
0
100
AcDbLine
 10
-14.59174581735655
 20
-14.73623314900017
 30
0.0
 11
-14.20537481735655
 21
-14.83976094900016
 31
0.0
  0
LINE
  5
171
330
1F
100
AcDbEntity
  8
0
100
AcDbLine
 10
5.021884982643451
 20
-14.83976094900016
 30
0.0
 11
5.408255782643457
 21
-14.73623314900017
 31
0.0
  0
LINE
  5
172
330
1F
100
AcDbEntity
  8
0
100
AcDbLine
 10
5.408255782643457
 20
-14.73623314900017
 30
0.0
 11
5.021884982643451
 21
-14.63270534900016
 31
0.0
  0
LINE
  5
173
330
1F
100
AcDbEntity
  8
0
100
AcDbLine
 10
-14.59174581735655
 20
-14.73623314900017
 30
0.0
 11
5.408255782643457
 21
-14.73623314900017
 31
0.0
  0
LINE
  5
174
330
1F
100
AcDbEntity
  8
0
100
AcDbLine
 10
12.05213698264345
 20
-0.0513385490001652
 30
0.0
 11
12.05213698264345
 21
0.4297846509998351
 31
0.0
  0
LINE
  5
175
330
1F
100
AcDbEntity
  8
0
100
AcDbLine
 10
12.05213698264345
 20
0.4297846509998351
 30
0.0
 11
11.96539078264345
 21
0.4297846509998351
 31
0.0
  0
LINE
  5
176
330
1F
100
AcDbEntity
  8
0
100
AcDbLine
 10
11.96539078264345
 20
0.4297846509998351
 30
0.0
 11
11.96539078264345
 21
0.0495250509998369
 31
0.0
  0
LINE
  5
177
330
1F
100
AcDbEntity
  8
0
100
AcDbLine
 10
11.96539078264345
 20
0.0495250509998369
 30
0.0
 11
11.91798778264344
 21
0.0707072509998354
 31
0.0
  0
LINE
  5
178
330
1F
100
AcDbEntity
  8
0
100
AcDbLine
 10
11.91798778264344
 20
0.0707072509998354
 30
0.0
 11
11.87865078264345
 21
0.1070186509998342
 31
0.0
  0
LINE
  5
179
330
1F
100
AcDbEntity
  8
0
100
AcDbLine
 10
11.87865078264345
 20
0.1070186509998342
 30
0.0
 11
11.80703518264345
 21
0.2189784509998368
 31
0.0
  0
LINE
  5
17A
330
1F
100
AcDbEntity
  8
0
100
AcDbLine
 10
11.80703518264345
 20
0.2189784509998368
 30
0.0
 11
11.77677698264344
 21
0.2784876509998355
 31
0.0
  0
LINE
  5
17B
330
1F
100
AcDbEntity
  8
0
100
AcDbLine
 10
11.77677698264344
 20
0.2784876509998355
 30
0.0
 11
11.73340538264345
 21
0.3450588509998366
 31
0.0
  0
LINE
  5
17C
330
1F
100
AcDbEntity
  8
0
100
AcDbLine
 10
11.73340538264345
 20
0.3450588509998366
 30
0.0
 11
11.68297198264346
 21
0.3924648509998366
 31
0.0
  0
LINE
  5
17D
330
1F
100
AcDbEntity
  8
0
100
AcDbLine
 10
11.68297198264346
 20
0.3924648509998366
 30
0.0
 11
11.62346278264344
 21
0.4196986509998372
 31
0.0
  0
LINE
  5
17E
330
1F
100
AcDbEntity
  8
0
100
AcDbLine
 10
11.62346278264344
 20
0.4196986509998372
 30
0.0
 11
11.55588158264346
 21
0.4297846509998351
 31
0.0
  0
LINE
  5
17F
330
1F
100
AcDbEntity
  8
0
100
AcDbLine
 10
11.55588158264346
 20
0.4297846509998351
 30
0.0
 11
11.47115558264345
 21
0.4126384509998319
 31
0.0
  0
LINE
  5
180
330
1F
100
AcDbEntity
  8
0
100
AcDbLine
 10
11.47115558264345
 20
0.4126384509998319
 30
0.0
 11
11.40458458264345
 21
0.3652308509998325
 31
0.0
  0
LINE
  5
181
330
1F
100
AcDbEntity
  8
0
100
AcDbLine
 10
11.40458458264345
 20
0.3652308509998325
 30
0.0
 11
11.36222298264346
 21
0.2926082509998383
 31
0.0
  0
LINE
  5
182
330
1F
100
AcDbEntity
  8
0
100
AcDbLine
 10
11.36222298264346
 20
0.2926082509998383
 30
0.0
 11
11.34709238264345
 21
0.1988048509998359
 31
0.0
  0
LINE
  5
183
330
1F
100
AcDbEntity
  8
0
100
AcDbLine
 10
11.34709238264345
 20
0.1988048509998359
 30
0.0
 11
11.36424038264346
 21
0.1019756509998352
 31
0.0
  0
LINE
  5
184
330
1F
100
AcDbEntity
  8
0
100
AcDbLine
 10
11.36424038264346
 20
0.1019756509998352
 30
0.0
 11
11.41164638264345
 21
0.0283442509998344
 31
0.0
  0
LINE
  5
185
330
1F
100
AcDbEntity
  8
0
100
AcDbLine
 10
11.41164638264345
 20
0.0283442509998344
 30
0.0
 11
11.48729318264345
 21
-0.0190631490001672
 31
0.0
  0
LINE
  5
186
330
1F
100
AcDbEntity
  8
0
100
AcDbLine
 10
11.48729318264345
 20
-0.0190631490001672
 30
0.0
 11
11.58715298264345
 21
-0.0352009490001651
 31
0.0
  0
LINE
  5
187
330
1F
100
AcDbEntity
  8
0
100
AcDbLine
 10
11.58715298264345
 20
-0.0352009490001651
 30
0.0
 11
11.60127038264345
 21
0.0565852509998366
 31
0.0
  0
LINE
  5
188
330
1F
100
AcDbEntity
  8
0
100
AcDbLine
 10
11.60127038264345
 20
0.0565852509998366
 30
0.0
 11
11.52461618264345
 21
0.0656642509998364
 31
0.0
  0
LINE
  5
189
330
1F
100
AcDbEntity
  8
0
100
AcDbLine
 10
11.52461618264345
 20
0.0656642509998364
 30
0.0
 11
11.47418298264344
 21
0.0928966509998354
 31
0.0
  0
LINE
  5
18A
330
1F
100
AcDbEntity
  8
0
100
AcDbLine
 10
11.47418298264344
 20
0.0928966509998354
 30
0.0
 11
11.44190438264345
 21
0.136268250999834
 31
0.0
  0
LINE
  5
18B
330
1F
100
AcDbEntity
  8
0
100
AcDbLine
 10
11.44190438264345
 20
0.136268250999834
 30
0.0
 11
11.43081138264344
 21
0.1937618509998369
 31
0.0
  0
LINE
  5
18C
330
1F
100
AcDbEntity
  8
0
100
AcDbLine
 10
11.43081138264344
 20
0.1937618509998369
 30
0.0
 11
11.44089738264345
 21
0.2522624509998324
 31
0.0
  0
LINE
  5
18D
330
1F
100
AcDbEntity
  8
0
100
AcDbLine
 10
11.44089738264345
 20
0.2522624509998324
 30
0.0
 11
11.46611398264345
 21
0.2956356509998359
 31
0.0
  0
LINE
  5
18E
330
1F
100
AcDbEntity
  8
0
100
AcDbLine
 10
11.46611398264345
 20
0.2956356509998359
 30
0.0
 11
11.50545118264345
 21
0.3238764509998347
 31
0.0
  0
LINE
  5
18F
330
1F
100
AcDbEntity
  8
0
100
AcDbLine
 10
11.50545118264345
 20
0.3238764509998347
 30
0.0
 11
11.55487438264345
 21
0.333964050999832
 31
0.0
  0
LINE
  5
190
330
1F
100
AcDbEntity
  8
0
100
AcDbLine
 10
11.55487438264345
 20
0.333964050999832
 30
0.0
 11
11.60127038264345
 21
0.3269022509998329
 31
0.0
  0
LINE
  5
191
330
1F
100
AcDbEntity
  8
0
100
AcDbLine
 10
11.60127038264345
 20
0.3269022509998329
 30
0.0
 11
11.64060738264346
 21
0.3077388509998346
 31
0.0
  0
LINE
  5
192
330
1F
100
AcDbEntity
  8
0
100
AcDbLine
 10
11.64060738264346
 20
0.3077388509998346
 30
0.0
 11
11.67490318264344
 21
0.2754618509998372
 31
0.0
  0
LINE
  5
193
330
1F
100
AcDbEntity
  8
0
100
AcDbLine
 10
11.67490318264344
 20
0.2754618509998372
 30
0.0
 11
11.70516438264346
 21
0.2310816509998355
 31
0.0
  0
LINE
  5
194
330
1F
100
AcDbEntity
  8
0
100
AcDbLine
 10
11.70516438264346
 20
0.2310816509998355
 30
0.0
 11
11.73743978264345
 21
0.1715708509998375
 31
0.0
  0
LINE
  5
195
330
1F
100
AcDbEntity
  8
0
100
AcDbLine
 10
11.73743978264345
 20
0.1715708509998375
 30
0.0
 11
11.79997638264345
 21
0.0727244509998361
 31
0.0
  0
LINE
  5
196
330
1F
100
AcDbEntity
  8
0
100
AcDbLine
 10
11.79997638264345
 20
0.0727244509998361
 30
0.0
 11
11.86654438264345
 21
0.0031276509998345
 31
0.0
  0
LINE
  5
197
330
1F
100
AcDbEntity
  8
0
100
AcDbLine
 10
11.86654438264345
 20
0.0031276509998345
 30
0.0
 11
11.94723898264345
 21
-0.0382267490001633
 31
0.0
  0
LINE
  5
198
330
1F
100
AcDbEntity
  8
0
100
AcDbLine
 10
11.94723898264345
 20
-0.0382267490001633
 30
0.0
 11
12.05213698264345
 21
-0.0513385490001652
 31
0.0
  0
LINE
  5
199
330
1F
100
AcDbEntity
  8
0
100
AcDbLine
 10
11.71020578264345
 20
0.6988918509998344
 30
0.0
 11
11.86856458264345
 21
0.7140208509998369
 31
0.0
  0
LINE
  5
19A
330
1F
100
AcDbEntity
  8
0
100
AcDbLine
 10
11.86856458264345
 20
0.7140208509998369
 30
0.0
 11
11.98153158264344
 21
0.7614268509998369
 31
0.0
  0
LINE
  5
19B
330
1F
100
AcDbEntity
  8
0
100
AcDbLine
 10
11.98153158264344
 20
0.7614268509998369
 30
0.0
 11
12.05011978264345
 21
0.8370754509998328
 31
0.0
  0
LINE
  5
19C
330
1F
100
AcDbEntity
  8
0
100
AcDbLine
 10
12.05011978264345
 20
0.8370754509998328
 30
0.0
 11
12.07230918264345
 21
0.9419750509998358
 31
0.0
  0
LINE
  5
19D
330
1F
100
AcDbEntity
  8
0
100
AcDbLine
 10
12.07230918264345
 20
0.9419750509998358
 30
0.0
 11
12.05011978264345
 21
1.045866050999835
 31
0.0
  0
LINE
  5
19E
330
1F
100
AcDbEntity
  8
0
100
AcDbLine
 10
12.05011978264345
 20
1.045866050999835
 30
0.0
 11
11.98153158264344
 21
1.121514450999834
 31
0.0
  0
LINE
  5
19F
330
1F
100
AcDbEntity
  8
0
100
AcDbLine
 10
11.98153158264344
 20
1.121514450999834
 30
0.0
 11
11.86856458264345
 21
1.167911850999836
 31
0.0
  0
LINE
  5
1A0
330
1F
100
AcDbEntity
  8
0
100
AcDbLine
 10
11.86856458264345
 20
1.167911850999836
 30
0.0
 11
11.71020578264345
 21
1.184049650999834
 31
0.0
  0
LINE
  5
1A1
330
1F
100
AcDbEntity
  8
0
100
AcDbLine
 10
11.71020578264345
 20
1.184049650999834
 30
0.0
 11
11.55285718264344
 21
1.167911850999836
 31
0.0
  0
LINE
  5
1A2
330
1F
100
AcDbEntity
  8
0
100
AcDbLine
 10
11.55285718264344
 20
1.167911850999836
 30
0.0
 11
11.49032058264345
 21
1.148746850999833
 31
0.0
  0
LINE
  5
1A3
330
1F
100
AcDbEntity
  8
0
100
AcDbLine
 10
11.49032058264345
 20
1.148746850999833
 30
0.0
 11
11.43888018264346
 21
1.121514450999834
 31
0.0
  0
LINE
  5
1A4
330
1F
100
AcDbEntity
  8
0
100
AcDbLine
 10
11.43888018264346
 20
1.121514450999834
 30
0.0
 11
11.37029198264346
 21
1.045866050999835
 31
0.0
  0
LINE
  5
1A5
330
1F
100
AcDbEntity
  8
0
100
AcDbLine
 10
11.37029198264346
 20
1.045866050999835
 30
0.0
 11
11.34709238264345
 21
0.9419750509998358
 31
0.0
  0
LINE
  5
1A6
330
1F
100
AcDbEntity
  8
0
100
AcDbLine
 10
11.34709238264345
 20
0.9419750509998358
 30
0.0
 11
11.37029198264346
 21
0.8370754509998328
 31
0.0
  0
LINE
  5
1A7
330
1F
100
AcDbEntity
  8
0
100
AcDbLine
 10
11.37029198264346
 20
0.8370754509998328
 30
0.0
 11
11.43989038264345
 21
0.7614268509998369
 31
0.0
  0
LINE
  5
1A8
330
1F
100
AcDbEntity
  8
0
100
AcDbLine
 10
11.43989038264345
 20
0.7614268509998369
 30
0.0
 11
11.55285718264344
 21
0.7140208509998369
 31
0.0
  0
LINE
  5
1A9
330
1F
100
AcDbEntity
  8
0
100
AcDbLine
 10
11.55285718264344
 20
0.7140208509998369
 30
0.0
 11
11.71020578264345
 21
0.6988918509998344
 31
0.0
  0
LINE
  5
1AA
330
1F
100
AcDbEntity
  8
0
100
AcDbLine
 10
11.71020578264345
 20
0.795721050999835
 30
0.0
 11
11.58815998264345
 21
0.8037898509998379
 31
0.0
  0
LINE
  5
1AB
330
1F
100
AcDbEntity
  8
0
100
AcDbLine
 10
11.58815998264345
 20
0.8037898509998379
 30
0.0
 11
11.50040658264345
 21
0.8290064509998378
 31
0.0
  0
LINE
  5
1AC
330
1F
100
AcDbEntity
  8
0
100
AcDbLine
 10
11.50040658264345
 20
0.8290064509998378
 30
0.0
 11
11.44896618264346
 21
0.8743952509998371
 31
0.0
  0
LINE
  5
1AD
330
1F
100
AcDbEntity
  8
0
100
AcDbLine
 10
11.44896618264346
 20
0.8743952509998371
 30
0.0
 11
11.43081138264344
 21
0.9419750509998358
 31
0.0
  0
LINE
  5
1AE
330
1F
100
AcDbEntity
  8
0
100
AcDbLine
 10
11.43081138264344
 20
0.9419750509998358
 30
0.0
 11
11.44896618264346
 21
1.008546050999833
 31
0.0
  0
LINE
  5
1AF
330
1F
100
AcDbEntity
  8
0
100
AcDbLine
 10
11.44896618264346
 20
1.008546050999833
 30
0.0
 11
11.50040658264345
 21
1.053934850999838
 31
0.0
  0
LINE
  5
1B0
330
1F
100
AcDbEntity
  8
0
100
AcDbLine
 10
11.50040658264345
 20
1.053934850999838
 30
0.0
 11
11.58815998264345
 21
1.079151450999838
 31
0.0
  0
LINE
  5
1B1
330
1F
100
AcDbEntity
  8
0
100
AcDbLine
 10
11.58815998264345
 20
1.079151450999838
 30
0.0
 11
11.71020578264345
 21
1.087220250999835
 31
0.0
  0
LINE
  5
1B2
330
1F
100
AcDbEntity
  8
0
100
AcDbLine
 10
11.71020578264345
 20
1.087220250999835
 30
0.0
 11
11.83326198264345
 21
1.079151450999838
 31
0.0
  0
LINE
  5
1B3
330
1F
100
AcDbEntity
  8
0
100
AcDbLine
 10
11.83326198264345
 20
1.079151450999838
 30
0.0
 11
11.92101218264345
 21
1.053934850999838
 31
0.0
  0
LINE
  5
1B4
330
1F
100
AcDbEntity
  8
0
100
AcDbLine
 10
11.92101218264345
 20
1.053934850999838
 30
0.0
 11
11.97245258264345
 21
1.008546050999833
 31
0.0
  0
LINE
  5
1B5
330
1F
100
AcDbEntity
  8
0
100
AcDbLine
 10
11.97245258264345
 20
1.008546050999833
 30
0.0
 11
11.98960038264345
 21
0.9419750509998358
 31
0.0
  0
LINE
  5
1B6
330
1F
100
AcDbEntity
  8
0
100
AcDbLine
 10
11.98960038264345
 20
0.9419750509998358
 30
0.0
 11
11.97245258264345
 21
0.8743952509998371
 31
0.0
  0
LINE
  5
1B7
330
1F
100
AcDbEntity
  8
0
100
AcDbLine
 10
11.97245258264345
 20
0.8743952509998371
 30
0.0
 11
11.92101218264345
 21
0.8290064509998378
 31
0.0
  0
LINE
  5
1B8
330
1F
100
AcDbEntity
  8
0
100
AcDbLine
 10
11.92101218264345
 20
0.8290064509998378
 30
0.0
 11
11.83326198264345
 21
0.8037898509998379
 31
0.0
  0
LINE
  5
1B9
330
1F
100
AcDbEntity
  8
0
100
AcDbLine
 10
11.83326198264345
 20
0.8037898509998379
 30
0.0
 11
11.71020578264345
 21
0.795721050999835
 31
0.0
  0
LINE
  5
1BA
330
1F
100
AcDbEntity
  8
0
100
AcDbLine
 10
4.308255782643442
 20
-9.431628149000163
 30
0.0
 11
12.45213698264345
 21
-9.431628149000163
 31
0.0
  0
LINE
  5
1BB
330
1F
100
AcDbEntity
  8
0
100
AcDbLine
 10
4.308255782643442
 20
10.56837425099984
 30
0.0
 11
12.45213698264345
 21
10.56837425099984
 31
0.0
  0
LINE
  5
1BC
330
1F
100
AcDbEntity
  8
0
100
AcDbLine
 10
12.55566178264345
 20
10.18200345099984
 30
0.0
 11
12.45213698264345
 21
10.56837425099984
 31
0.0
  0
LINE
  5
1BD
330
1F
100
AcDbEntity
  8
0
100
AcDbLine
 10
12.45213698264345
 20
10.56837425099984
 30
0.0
 11
12.34860918264344
 21
10.18200345099984
 31
0.0
  0
LINE
  5
1BE
330
1F
100
AcDbEntity
  8
0
100
AcDbLine
 10
12.34860918264344
 20
-9.045257949000165
 30
0.0
 11
12.45213698264345
 21
-9.431628149000163
 31
0.0
  0
LINE
  5
1BF
330
1F
100
AcDbEntity
  8
0
100
AcDbLine
 10
12.45213698264345
 20
-9.431628149000163
 30
0.0
 11
12.55566178264345
 21
-9.045257949000165
 31
0.0
  0
LINE
  5
1C0
330
1F
100
AcDbEntity
  8
0
100
AcDbLine
 10
12.45213698264345
 20
-9.431628149000163
 30
0.0
 11
12.45213698264345
 21
10.56837425099984
 31
0.0
  0
LINE
  5
1C1
330
1F
100
AcDbEntity
  8
0
100
AcDbLine
 10
-10.22356641735655
 20
-0.8025775490001623
 30
0.0
 11
-10.14085761735655
 21
-0.7803883490001656
 31
0.0
  0
LINE
  5
1C2
330
1F
100
AcDbEntity
  8
0
100
AcDbLine
 10
-10.14085761735655
 20
-0.7803883490001656
 30
0.0
 11
-10.07630381735655
 21
-0.730965149000165
 31
0.0
  0
LINE
  5
1C3
330
1F
100
AcDbEntity
  8
0
100
AcDbLine
 10
-10.07630381735655
 20
-0.730965149000165
 30
0.0
 11
-10.03595801735655
 21
-0.6583423490001616
 31
0.0
  0
LINE
  5
1C4
330
1F
100
AcDbEntity
  8
0
100
AcDbLine
 10
-10.03595801735655
 20
-0.6583423490001616
 30
0.0
 11
-10.02082901735655
 21
-0.5655461490001665
 31
0.0
  0
LINE
  5
1C5
330
1F
100
AcDbEntity
  8
0
100
AcDbLine
 10
-10.02082901735655
 20
-0.5655461490001665
 30
0.0
 11
-10.03898381735655
 21
-0.4636737490001634
 31
0.0
  0
LINE
  5
1C6
330
1F
100
AcDbEntity
  8
0
100
AcDbLine
 10
-10.03898381735655
 20
-0.4636737490001634
 30
0.0
 11
-10.08840701735655
 21
-0.3839909490001639
 31
0.0
  0
LINE
  5
1C7
330
1F
100
AcDbEntity
  8
0
100
AcDbLine
 10
-10.08840701735655
 20
-0.3839909490001639
 30
0.0
 11
-10.16708141735655
 21
-0.3335575490001607
 31
0.0
  0
LINE
  5
1C8
330
1F
100
AcDbEntity
  8
0
100
AcDbLine
 10
-10.16708141735655
 20
-0.3335575490001607
 30
0.0
 11
-10.26794661735655
 21
-0.3143939490001645
 31
0.0
  0
LINE
  5
1C9
330
1F
100
AcDbEntity
  8
0
100
AcDbLine
 10
-10.26794661735655
 20
-0.3143939490001645
 30
0.0
 11
-10.36175161735655
 21
-0.3315403490001655
 31
0.0
  0
LINE
  5
1CA
330
1F
100
AcDbEntity
  8
0
100
AcDbLine
 10
-10.36175161735655
 20
-0.3315403490001655
 30
0.0
 11
-10.43538281735655
 21
-0.3799565490001625
 31
0.0
  0
LINE
  5
1CB
330
1F
100
AcDbEntity
  8
0
100
AcDbLine
 10
-10.43538281735655
 20
-0.3799565490001625
 30
0.0
 11
-10.48278881735655
 21
-0.4556049490001662
 31
0.0
  0
LINE
  5
1CC
330
1F
100
AcDbEntity
  8
0
100
AcDbLine
 10
-10.48278881735655
 20
-0.4556049490001662
 30
0.0
 11
-10.49993521735655
 21
-0.5534427490001644
 31
0.0
  0
LINE
  5
1CD
330
1F
100
AcDbEntity
  8
0
100
AcDbLine
 10
-10.49993521735655
 20
-0.5534427490001644
 30
0.0
 11
-10.48783181735655
 21
-0.629091349000166
 31
0.0
  0
LINE
  5
1CE
330
1F
100
AcDbEntity
  8
0
100
AcDbLine
 10
-10.48783181735655
 20
-0.629091349000166
 30
0.0
 11
-10.45454641735655
 21
-0.6875935490001664
 31
0.0
  0
LINE
  5
1CF
330
1F
100
AcDbEntity
  8
0
100
AcDbLine
 10
-10.45454641735655
 20
-0.6875935490001664
 30
0.0
 11
-10.64316321735655
 21
-0.6593509490001649
 31
0.0
  0
LINE
  5
1D0
330
1F
100
AcDbEntity
  8
0
100
AcDbLine
 10
-10.64316321735655
 20
-0.6593509490001649
 30
0.0
 11
-10.64316321735655
 21
-0.352722549000164
 31
0.0
  0
LINE
  5
1D1
330
1F
100
AcDbEntity
  8
0
100
AcDbLine
 10
-10.64316321735655
 20
-0.352722549000164
 30
0.0
 11
-10.72587201735655
 21
-0.352722549000164
 31
0.0
  0
LINE
  5
1D2
330
1F
100
AcDbEntity
  8
0
100
AcDbLine
 10
-10.72587201735655
 20
-0.352722549000164
 30
0.0
 11
-10.72587201735655
 21
-0.7269307490001635
 31
0.0
  0
LINE
  5
1D3
330
1F
100
AcDbEntity
  8
0
100
AcDbLine
 10
-10.72587201735655
 20
-0.7269307490001635
 30
0.0
 11
-10.35468981735655
 21
-0.7824055490001663
 31
0.0
  0
LINE
  5
1D4
330
1F
100
AcDbEntity
  8
0
100
AcDbLine
 10
-10.35468981735655
 20
-0.7824055490001663
 30
0.0
 11
-10.35468981735655
 21
-0.7017139490001658
 31
0.0
  0
LINE
  5
1D5
330
1F
100
AcDbEntity
  8
0
100
AcDbLine
 10
-10.35468981735655
 20
-0.7017139490001658
 30
0.0
 11
-10.40209721735655
 21
-0.6432117490001653
 31
0.0
  0
LINE
  5
1D6
330
1F
100
AcDbEntity
  8
0
100
AcDbLine
 10
-10.40209721735655
 20
-0.6432117490001653
 30
0.0
 11
-10.41924361735655
 21
-0.5685719490001648
 31
0.0
  0
LINE
  5
1D7
330
1F
100
AcDbEntity
  8
0
100
AcDbLine
 10
-10.41924361735655
 20
-0.5685719490001648
 30
0.0
 11
-10.40814901735655
 21
-0.5040195490001638
 31
0.0
  0
LINE
  5
1D8
330
1F
100
AcDbEntity
  8
0
100
AcDbLine
 10
-10.40814901735655
 20
-0.5040195490001638
 30
0.0
 11
-10.37587201735655
 21
-0.454596349000163
 31
0.0
  0
LINE
  5
1D9
330
1F
100
AcDbEntity
  8
0
100
AcDbLine
 10
-10.37587201735655
 20
-0.454596349000163
 30
0.0
 11
-10.32644881735655
 21
-0.4233281490001666
 31
0.0
  0
LINE
  5
1DA
330
1F
100
AcDbEntity
  8
0
100
AcDbLine
 10
-10.32644881735655
 20
-0.4233281490001666
 30
0.0
 11
-10.26290361735655
 21
-0.4122319490001661
 31
0.0
  0
LINE
  5
1DB
330
1F
100
AcDbEntity
  8
0
100
AcDbLine
 10
-10.26290361735655
 20
-0.4122319490001661
 30
0.0
 11
-10.19935841735655
 21
-0.4233281490001666
 31
0.0
  0
LINE
  5
1DC
330
1F
100
AcDbEntity
  8
0
100
AcDbLine
 10
-10.19935841735655
 20
-0.4233281490001666
 30
0.0
 11
-10.14993521735655
 21
-0.4556049490001662
 31
0.0
  0
LINE
  5
1DD
330
1F
100
AcDbEntity
  8
0
100
AcDbLine
 10
-10.14993521735655
 20
-0.4556049490001662
 30
0.0
 11
-10.11866681735655
 21
-0.5050281490001669
 31
0.0
  0
LINE
  5
1DE
330
1F
100
AcDbEntity
  8
0
100
AcDbLine
 10
-10.11866681735655
 20
-0.5050281490001669
 30
0.0
 11
-10.10757221735655
 21
-0.5685719490001648
 31
0.0
  0
LINE
  5
1DF
330
1F
100
AcDbEntity
  8
0
100
AcDbLine
 10
-10.10757221735655
 20
-0.5685719490001648
 30
0.0
 11
-10.11463241735655
 21
-0.6220311490001663
 31
0.0
  0
LINE
  5
1E0
330
1F
100
AcDbEntity
  8
0
100
AcDbLine
 10
-10.11463241735655
 20
-0.6220311490001663
 30
0.0
 11
-10.13783181735655
 21
-0.6633853490001607
 31
0.0
  0
LINE
  5
1E1
330
1F
100
AcDbEntity
  8
0
100
AcDbLine
 10
-10.13783181735655
 20
-0.6633853490001607
 30
0.0
 11
-10.17414321735655
 21
-0.6936451490001629
 31
0.0
  0
LINE
  5
1E2
330
1F
100
AcDbEntity
  8
0
100
AcDbLine
 10
-10.17414321735655
 20
-0.6936451490001629
 30
0.0
 11
-10.22356641735655
 21
-0.7087741490001656
 31
0.0
  0
LINE
  5
1E3
330
1F
100
AcDbEntity
  8
0
100
AcDbLine
 10
-10.22356641735655
 20
-0.7087741490001656
 30
0.0
 11
-10.22356641735655
 21
-0.8025775490001623
 31
0.0
  0
LINE
  5
1E4
330
1F
100
AcDbEntity
  8
0
100
AcDbLine
 10
-10.04100101735655
 20
0.125173450999835
 30
0.0
 11
-10.04100101735655
 21
0.264367250999836
 31
0.0
  0
LINE
  5
1E5
330
1F
100
AcDbEntity
  8
0
100
AcDbLine
 10
-10.04100101735655
 20
0.264367250999836
 30
0.0
 11
-10.19128941735655
 21
0.264367250999836
 31
0.0
  0
LINE
  5
1E6
330
1F
100
AcDbEntity
  8
0
100
AcDbLine
 10
-10.19128941735655
 20
0.264367250999836
 30
0.0
 11
-10.19128941735655
 21
0.125173450999835
 31
0.0
  0
LINE
  5
1E7
330
1F
100
AcDbEntity
  8
0
100
AcDbLine
 10
-10.19128941735655
 20
0.125173450999835
 30
0.0
 11
-10.04100101735655
 21
0.125173450999835
 31
0.0
  0
LINE
  5
1E8
330
1F
100
AcDbEntity
  8
0
100
AcDbLine
 10
-10.55238421735655
 20
1.184049650999834
 30
0.0
 11
-10.63408581735655
 21
1.164886050999832
 31
0.0
  0
LINE
  5
1E9
330
1F
100
AcDbEntity
  8
0
100
AcDbLine
 10
-10.63408581735655
 20
1.164886050999832
 30
0.0
 11
-10.69460361735655
 21
1.120505850999836
 31
0.0
  0
LINE
  5
1EA
330
1F
100
AcDbEntity
  8
0
100
AcDbLine
 10
-10.69460361735655
 20
1.120505850999836
 30
0.0
 11
-10.73293221735655
 21
1.051917650999838
 31
0.0
  0
LINE
  5
1EB
330
1F
100
AcDbEntity
  8
0
100
AcDbLine
 10
-10.73293221735655
 20
1.051917650999838
 30
0.0
 11
-10.74604561735655
 21
0.9631572509998342
 31
0.0
  0
LINE
  5
1EC
330
1F
100
AcDbEntity
  8
0
100
AcDbLine
 10
-10.74604561735655
 20
0.9631572509998342
 30
0.0
 11
-10.73898381735655
 21
0.9036464509998362
 31
0.0
  0
LINE
  5
1ED
330
1F
100
AcDbEntity
  8
0
100
AcDbLine
 10
-10.73898381735655
 20
0.9036464509998362
 30
0.0
 11
-10.71982041735655
 21
0.8522060509998348
 31
0.0
  0
LINE
  5
1EE
330
1F
100
AcDbEntity
  8
0
100
AcDbLine
 10
-10.71982041735655
 20
0.8522060509998348
 30
0.0
 11
-10.68855201735655
 21
0.8068172509998356
 31
0.0
  0
LINE
  5
1EF
330
1F
100
AcDbEntity
  8
0
100
AcDbLine
 10
-10.68855201735655
 20
0.8068172509998356
 30
0.0
 11
-10.64417181735655
 21
0.768488650999836
 31
0.0
  0
LINE
  5
1F0
330
1F
100
AcDbEntity
  8
0
100
AcDbLine
 10
-10.64417181735655
 20
0.768488650999836
 30
0.0
 11
-10.58869701735655
 21
0.7382288509998337
 31
0.0
  0
LINE
  5
1F1
330
1F
100
AcDbEntity
  8
0
100
AcDbLine
 10
-10.58869701735655
 20
0.7382288509998337
 30
0.0
 11
-10.52111741735655
 21
0.7160380509998376
 31
0.0
  0
LINE
  5
1F2
330
1F
100
AcDbEntity
  8
0
100
AcDbLine
 10
-10.52111741735655
 20
0.7160380509998376
 30
0.0
 11
-10.44143441735655
 21
0.7019176509998326
 31
0.0
  0
LINE
  5
1F3
330
1F
100
AcDbEntity
  8
0
100
AcDbLine
 10
-10.44143441735655
 20
0.7019176509998326
 30
0.0
 11
-10.35166401735655
 21
0.6978832509998368
 31
0.0
  0
LINE
  5
1F4
330
1F
100
AcDbEntity
  8
0
100
AcDbLine
 10
-10.35166401735655
 20
0.6978832509998368
 30
0.0
 11
-10.20843741735655
 21
0.7140208509998369
 31
0.0
  0
LINE
  5
1F5
330
1F
100
AcDbEntity
  8
0
100
AcDbLine
 10
-10.20843741735655
 20
0.7140208509998369
 30
0.0
 11
-10.10454641735655
 21
0.7634440509998376
 31
0.0
  0
LINE
  5
1F6
330
1F
100
AcDbEntity
  8
0
100
AcDbLine
 10
-10.10454641735655
 20
0.7634440509998376
 30
0.0
 11
-10.04200961735655
 21
0.8431284509998366
 31
0.0
  0
LINE
  5
1F7
330
1F
100
AcDbEntity
  8
0
100
AcDbLine
 10
-10.04200961735655
 20
0.8431284509998366
 30
0.0
 11
-10.02082901735655
 21
0.9520610509998337
 31
0.0
  0
LINE
  5
1F8
330
1F
100
AcDbEntity
  8
0
100
AcDbLine
 10
-10.02082901735655
 20
0.9520610509998337
 30
0.0
 11
-10.03898381735655
 21
1.049900450999837
 31
0.0
  0
LINE
  5
1F9
330
1F
100
AcDbEntity
  8
0
100
AcDbLine
 10
-10.03898381735655
 20
1.049900450999837
 30
0.0
 11
-10.08639141735655
 21
1.124540250999832
 31
0.0
  0
LINE
  5
1FA
330
1F
100
AcDbEntity
  8
0
100
AcDbLine
 10
-10.08639141735655
 20
1.124540250999832
 30
0.0
 11
-10.16103141735655
 21
1.172954850999835
 31
0.0
  0
LINE
  5
1FB
330
1F
100
AcDbEntity
  8
0
100
AcDbLine
 10
-10.16103141735655
 20
1.172954850999835
 30
0.0
 11
-10.25584341735655
 21
1.190101250999836
 31
0.0
  0
LINE
  5
1FC
330
1F
100
AcDbEntity
  8
0
100
AcDbLine
 10
-10.25584341735655
 20
1.190101250999836
 30
0.0
 11
-10.35166401735655
 21
1.172954850999835
 31
0.0
  0
LINE
  5
1FD
330
1F
100
AcDbEntity
  8
0
100
AcDbLine
 10
-10.35166401735655
 20
1.172954850999835
 30
0.0
 11
-10.42529521735655
 21
1.126557450999833
 31
0.0
  0
LINE
  5
1FE
330
1F
100
AcDbEntity
  8
0
100
AcDbLine
 10
-10.42529521735655
 20
1.126557450999833
 30
0.0
 11
-10.47169261735655
 21
1.054943450999836
 31
0.0
  0
LINE
  5
1FF
330
1F
100
AcDbEntity
  8
0
100
AcDbLine
 10
-10.47169261735655
 20
1.054943450999836
 30
0.0
 11
-10.48783181735655
 21
0.9661830509998381
 31
0.0
  0
LINE
  5
200
330
1F
100
AcDbEntity
  8
0
100
AcDbLine
 10
-10.48783181735655
 20
0.9661830509998381
 30
0.0
 11
-10.46765821735655
 21
0.8703608509998356
 31
0.0
  0
LINE
  5
201
330
1F
100
AcDbEntity
  8
0
100
AcDbLine
 10
-10.46765821735655
 20
0.8703608509998356
 30
0.0
 11
-10.41016621735655
 21
0.7987468509998333
 31
0.0
  0
LINE
  5
202
330
1F
100
AcDbEntity
  8
0
100
AcDbLine
 10
-10.41016621735655
 20
0.7987468509998333
 30
0.0
 11
-10.52111741735655
 21
0.8138774509998352
 31
0.0
  0
LINE
  5
203
330
1F
100
AcDbEntity
  8
0
100
AcDbLine
 10
-10.52111741735655
 20
0.8138774509998352
 30
0.0
 11
-10.60080021735655
 21
0.8461544509998327
 31
0.0
  0
LINE
  5
204
330
1F
100
AcDbEntity
  8
0
100
AcDbLine
 10
-10.60080021735655
 20
0.8461544509998327
 30
0.0
 11
-10.64820621735655
 21
0.8955776509998333
 31
0.0
  0
LINE
  5
205
330
1F
100
AcDbEntity
  8
0
100
AcDbLine
 10
-10.64820621735655
 20
0.8955776509998333
 30
0.0
 11
-10.66434401735655
 21
0.9641658509998374
 31
0.0
  0
LINE
  5
206
330
1F
100
AcDbEntity
  8
0
100
AcDbLine
 10
-10.66434401735655
 20
0.9641658509998374
 30
0.0
 11
-10.65627521735655
 21
1.014597650999836
 31
0.0
  0
LINE
  5
207
330
1F
100
AcDbEntity
  8
0
100
AcDbLine
 10
-10.65627521735655
 20
1.014597650999836
 30
0.0
 11
-10.63509441735655
 21
1.052926250999835
 31
0.0
  0
LINE
  5
208
330
1F
100
AcDbEntity
  8
0
100
AcDbLine
 10
-10.63509441735655
 20
1.052926250999835
 30
0.0
 11
-10.59979161735655
 21
1.078142850999835
 31
0.0
  0
LINE
  5
209
330
1F
100
AcDbEntity
  8
0
100
AcDbLine
 10
-10.59979161735655
 20
1.078142850999835
 30
0.0
 11
-10.55238421735655
 21
1.091254850999835
 31
0.0
  0
LINE
  5
20A
330
1F
100
AcDbEntity
  8
0
100
AcDbLine
 10
-10.55238421735655
 20
1.091254850999835
 30
0.0
 11
-10.55238421735655
 21
1.184049650999834
 31
0.0
  0
LINE
  5
20B
330
1F
100
AcDbEntity
  8
0
100
AcDbLine
 10
-10.25483481735655
 20
1.092263450999838
 30
0.0
 11
-10.19128941735655
 21
1.081168650999833
 31
0.0
  0
LINE
  5
20C
330
1F
100
AcDbEntity
  8
0
100
AcDbLine
 10
-10.19128941735655
 20
1.081168650999833
 30
0.0
 11
-10.14287481735655
 21
1.052926250999835
 31
0.0
  0
LINE
  5
20D
330
1F
100
AcDbEntity
  8
0
100
AcDbLine
 10
-10.14287481735655
 20
1.052926250999835
 30
0.0
 11
-10.11059801735655
 21
1.007537450999836
 31
0.0
  0
LINE
  5
20E
330
1F
100
AcDbEntity
  8
0
100
AcDbLine
 10
-10.11059801735655
 20
1.007537450999836
 30
0.0
 11
-10.10051181735655
 21
0.9510524509998362
 31
0.0
  0
LINE
  5
20F
330
1F
100
AcDbEntity
  8
0
100
AcDbLine
 10
-10.10051181735655
 20
0.9510524509998362
 30
0.0
 11
-10.11059801735655
 21
0.8915430509998341
 31
0.0
  0
LINE
  5
210
330
1F
100
AcDbEntity
  8
0
100
AcDbLine
 10
-10.11059801735655
 20
0.8915430509998341
 30
0.0
 11
-10.14186621735655
 21
0.8461544509998327
 31
0.0
  0
LINE
  5
211
330
1F
100
AcDbEntity
  8
0
100
AcDbLine
 10
-10.14186621735655
 20
0.8461544509998327
 30
0.0
 11
-10.19028081735655
 21
0.8169032509998335
 31
0.0
  0
LINE
  5
212
330
1F
100
AcDbEntity
  8
0
100
AcDbLine
 10
-10.19028081735655
 20
0.8169032509998335
 30
0.0
 11
-10.25382621735655
 21
0.8078258509998331
 31
0.0
  0
LINE
  5
213
330
1F
100
AcDbEntity
  8
0
100
AcDbLine
 10
-10.25382621735655
 20
0.8078258509998331
 30
0.0
 11
-10.31636121735655
 21
0.8179118509998367
 31
0.0
  0
LINE
  5
214
330
1F
100
AcDbEntity
  8
0
100
AcDbLine
 10
-10.31636121735655
 20
0.8179118509998367
 30
0.0
 11
-10.36376881735655
 21
0.8461544509998327
 31
0.0
  0
LINE
  5
215
330
1F
100
AcDbEntity
  8
0
100
AcDbLine
 10
-10.36376881735655
 20
0.8461544509998327
 30
0.0
 11
-10.39402701735655
 21
0.892551850999835
 31
0.0
  0
LINE
  5
216
330
1F
100
AcDbEntity
  8
0
100
AcDbLine
 10
-10.39402701735655
 20
0.892551850999835
 30
0.0
 11
-10.40512321735655
 21
0.9550868509998376
 31
0.0
  0
LINE
  5
217
330
1F
100
AcDbEntity
  8
0
100
AcDbLine
 10
-10.40512321735655
 20
0.9550868509998376
 30
0.0
 11
-10.39402701735655
 21
1.009554650999837
 31
0.0
  0
LINE
  5
218
330
1F
100
AcDbEntity
  8
0
100
AcDbLine
 10
-10.39402701735655
 20
1.009554650999837
 30
0.0
 11
-10.36477741735655
 21
1.052926250999835
 31
0.0
  0
LINE
  5
219
330
1F
100
AcDbEntity
  8
0
100
AcDbLine
 10
-10.36477741735655
 20
1.052926250999835
 30
0.0
 11
-10.31737141735655
 21
1.081168650999833
 31
0.0
  0
LINE
  5
21A
330
1F
100
AcDbEntity
  8
0
100
AcDbLine
 10
-10.31737141735655
 20
1.081168650999833
 30
0.0
 11
-10.25483481735655
 21
1.092263450999838
 31
0.0
  0
LINE
  5
21B
330
1F
100
AcDbEntity
  8
0
100
AcDbLine
 10
-10.41823501735655
 20
1.564107850999835
 30
0.0
 11
-10.38999241735655
 21
1.512667450999833
 31
0.0
  0
LINE
  5
21C
330
1F
100
AcDbEntity
  8
0
100
AcDbLine
 10
-10.38999241735655
 20
1.512667450999833
 30
0.0
 11
-10.35065541735655
 21
1.477364650999838
 31
0.0
  0
LINE
  5
21D
330
1F
100
AcDbEntity
  8
0
100
AcDbLine
 10
-10.35065541735655
 20
1.477364650999838
 30
0.0
 11
-10.30123221735655
 21
1.455173850999836
 31
0.0
  0
LINE
  5
21E
330
1F
100
AcDbEntity
  8
0
100
AcDbLine
 10
-10.30123221735655
 20
1.455173850999836
 30
0.0
 11
-10.24172141735655
 21
1.448113650999836
 31
0.0
  0
LINE
  5
21F
330
1F
100
AcDbEntity
  8
0
100
AcDbLine
 10
-10.24172141735655
 20
1.448113650999836
 30
0.0
 11
-10.15195241735655
 21
1.464251250999836
 31
0.0
  0
LINE
  5
220
330
1F
100
AcDbEntity
  8
0
100
AcDbLine
 10
-10.15195241735655
 20
1.464251250999836
 30
0.0
 11
-10.08235701735655
 21
1.510650250999838
 31
0.0
  0
LINE
  5
221
330
1F
100
AcDbEntity
  8
0
100
AcDbLine
 10
-10.08235701735655
 20
1.510650250999838
 30
0.0
 11
-10.03797521735655
 21
1.586297250999835
 31
0.0
  0
LINE
  5
222
330
1F
100
AcDbEntity
  8
0
100
AcDbLine
 10
-10.03797521735655
 20
1.586297250999835
 30
0.0
 11
-10.02082901735655
 21
1.689179650999837
 31
0.0
  0
LINE
  5
223
330
1F
100
AcDbEntity
  8
0
100
AcDbLine
 10
-10.02082901735655
 20
1.689179650999837
 30
0.0
 11
-10.03797521735655
 21
1.791053250999838
 31
0.0
  0
LINE
  5
224
330
1F
100
AcDbEntity
  8
0
100
AcDbLine
 10
-10.03797521735655
 20
1.791053250999838
 30
0.0
 11
-10.08235701735655
 21
1.866701850999834
 31
0.0
  0
LINE
  5
225
330
1F
100
AcDbEntity
  8
0
100
AcDbLine
 10
-10.08235701735655
 20
1.866701850999834
 30
0.0
 11
-10.15195241735655
 21
1.913099250999837
 31
0.0
  0
LINE
  5
226
330
1F
100
AcDbEntity
  8
0
100
AcDbLine
 10
-10.15195241735655
 20
1.913099250999837
 30
0.0
 11
-10.24172141735655
 21
1.930245450999834
 31
0.0
  0
LINE
  5
227
330
1F
100
AcDbEntity
  8
0
100
AcDbLine
 10
-10.24172141735655
 20
1.930245450999834
 30
0.0
 11
-10.30123221735655
 21
1.922176650999837
 31
0.0
  0
LINE
  5
228
330
1F
100
AcDbEntity
  8
0
100
AcDbLine
 10
-10.30123221735655
 20
1.922176650999837
 30
0.0
 11
-10.35065541735655
 21
1.900996050999832
 31
0.0
  0
LINE
  5
229
330
1F
100
AcDbEntity
  8
0
100
AcDbLine
 10
-10.35065541735655
 20
1.900996050999832
 30
0.0
 11
-10.38999241735655
 21
1.864684650999833
 31
0.0
  0
LINE
  5
22A
330
1F
100
AcDbEntity
  8
0
100
AcDbLine
 10
-10.38999241735655
 20
1.864684650999833
 30
0.0
 11
-10.41823501735655
 21
1.814251250999836
 31
0.0
  0
LINE
  5
22B
330
1F
100
AcDbEntity
  8
0
100
AcDbLine
 10
-10.41823501735655
 20
1.814251250999836
 30
0.0
 11
-10.44244301735655
 21
1.854597050999836
 31
0.0
  0
LINE
  5
22C
330
1F
100
AcDbEntity
  8
0
100
AcDbLine
 10
-10.44244301735655
 20
1.854597050999836
 30
0.0
 11
-10.47572861735655
 21
1.882839450999834
 31
0.0
  0
LINE
  5
22D
330
1F
100
AcDbEntity
  8
0
100
AcDbLine
 10
-10.47572861735655
 20
1.882839450999834
 30
0.0
 11
-10.51607281735655
 21
1.899987450999835
 31
0.0
  0
LINE
  5
22E
330
1F
100
AcDbEntity
  8
0
100
AcDbLine
 10
-10.51607281735655
 20
1.899987450999835
 30
0.0
 11
-10.56549761735655
 21
1.906039050999837
 31
0.0
  0
LINE
  5
22F
330
1F
100
AcDbEntity
  8
0
100
AcDbLine
 10
-10.56549761735655
 20
1.906039050999837
 30
0.0
 11
-10.63711161735655
 21
1.889899850999832
 31
0.0
  0
LINE
  5
230
330
1F
100
AcDbEntity
  8
0
100
AcDbLine
 10
-10.63711161735655
 20
1.889899850999832
 30
0.0
 11
-10.69460361735655
 21
1.847536850999836
 31
0.0
  0
LINE
  5
231
330
1F
100
AcDbEntity
  8
0
100
AcDbLine
 10
-10.69460361735655
 20
1.847536850999836
 30
0.0
 11
-10.73192361735655
 21
1.778948450999835
 31
0.0
  0
LINE
  5
232
330
1F
100
AcDbEntity
  8
0
100
AcDbLine
 10
-10.73192361735655
 20
1.778948450999835
 30
0.0
 11
-10.74604561735655
 21
1.689179650999837
 31
0.0
  0
LINE
  5
233
330
1F
100
AcDbEntity
  8
0
100
AcDbLine
 10
-10.74604561735655
 20
1.689179650999837
 30
0.0
 11
-10.73192361735655
 21
1.598402050999838
 31
0.0
  0
LINE
  5
234
330
1F
100
AcDbEntity
  8
0
100
AcDbLine
 10
-10.73192361735655
 20
1.598402050999838
 30
0.0
 11
-10.69460361735655
 21
1.529813650999837
 31
0.0
  0
LINE
  5
235
330
1F
100
AcDbEntity
  8
0
100
AcDbLine
 10
-10.69460361735655
 20
1.529813650999837
 30
0.0
 11
-10.63711161735655
 21
1.486442050999838
 31
0.0
  0
LINE
  5
236
330
1F
100
AcDbEntity
  8
0
100
AcDbLine
 10
-10.63711161735655
 20
1.486442050999838
 30
0.0
 11
-10.56549761735655
 21
1.471311450999836
 31
0.0
  0
LINE
  5
237
330
1F
100
AcDbEntity
  8
0
100
AcDbLine
 10
-10.56549761735655
 20
1.471311450999836
 30
0.0
 11
-10.51607281735655
 21
1.476356050999835
 31
0.0
  0
LINE
  5
238
330
1F
100
AcDbEntity
  8
0
100
AcDbLine
 10
-10.51607281735655
 20
1.476356050999835
 30
0.0
 11
-10.47572861735655
 21
1.493502450999836
 31
0.0
  0
LINE
  5
239
330
1F
100
AcDbEntity
  8
0
100
AcDbLine
 10
-10.47572861735655
 20
1.493502450999836
 30
0.0
 11
-10.41823501735655
 21
1.564107850999835
 31
0.0
  0
LINE
  5
23A
330
1F
100
AcDbEntity
  8
0
100
AcDbLine
 10
-10.24374001735655
 20
1.544942850999837
 30
0.0
 11
-10.29719761735655
 21
1.554021850999837
 31
0.0
  0
LINE
  5
23B
330
1F
100
AcDbEntity
  8
0
100
AcDbLine
 10
-10.29719761735655
 20
1.554021850999837
 30
0.0
 11
-10.33754341735655
 21
1.583271450999837
 31
0.0
  0
LINE
  5
23C
330
1F
100
AcDbEntity
  8
0
100
AcDbLine
 10
-10.33754341735655
 20
1.583271450999837
 30
0.0
 11
-10.36376881735655
 21
1.628661650999838
 31
0.0
  0
LINE
  5
23D
330
1F
100
AcDbEntity
  8
0
100
AcDbLine
 10
-10.36376881735655
 20
1.628661650999838
 30
0.0
 11
-10.37284621735655
 21
1.689179650999837
 31
0.0
  0
LINE
  5
23E
330
1F
100
AcDbEntity
  8
0
100
AcDbLine
 10
-10.37284621735655
 20
1.689179650999837
 30
0.0
 11
-10.36376881735655
 21
1.748690450999835
 31
0.0
  0
LINE
  5
23F
330
1F
100
AcDbEntity
  8
0
100
AcDbLine
 10
-10.36376881735655
 20
1.748690450999835
 30
0.0
 11
-10.33754341735655
 21
1.794079250999834
 31
0.0
  0
LINE
  5
240
330
1F
100
AcDbEntity
  8
0
100
AcDbLine
 10
-10.33754341735655
 20
1.794079250999834
 30
0.0
 11
-10.29719761735655
 21
1.823330250999836
 31
0.0
  0
LINE
  5
241
330
1F
100
AcDbEntity
  8
0
100
AcDbLine
 10
-10.29719761735655
 20
1.823330250999836
 30
0.0
 11
-10.24374001735655
 21
1.833416250999834
 31
0.0
  0
LINE
  5
242
330
1F
100
AcDbEntity
  8
0
100
AcDbLine
 10
-10.24374001735655
 20
1.833416250999834
 30
0.0
 11
-10.18624641735655
 21
1.823330250999836
 31
0.0
  0
LINE
  5
243
330
1F
100
AcDbEntity
  8
0
100
AcDbLine
 10
-10.18624641735655
 20
1.823330250999836
 30
0.0
 11
-10.14287481735655
 21
1.794079250999834
 31
0.0
  0
LINE
  5
244
330
1F
100
AcDbEntity
  8
0
100
AcDbLine
 10
-10.14287481735655
 20
1.794079250999834
 30
0.0
 11
-10.11463241735655
 21
1.748690450999835
 31
0.0
  0
LINE
  5
245
330
1F
100
AcDbEntity
  8
0
100
AcDbLine
 10
-10.11463241735655
 20
1.748690450999835
 30
0.0
 11
-10.10555501735655
 21
1.689179650999837
 31
0.0
  0
LINE
  5
246
330
1F
100
AcDbEntity
  8
0
100
AcDbLine
 10
-10.10555501735655
 20
1.689179650999837
 30
0.0
 11
-10.11463241735655
 21
1.628661650999838
 31
0.0
  0
LINE
  5
247
330
1F
100
AcDbEntity
  8
0
100
AcDbLine
 10
-10.11463241735655
 20
1.628661650999838
 30
0.0
 11
-10.14287481735655
 21
1.583271450999837
 31
0.0
  0
LINE
  5
248
330
1F
100
AcDbEntity
  8
0
100
AcDbLine
 10
-10.14287481735655
 20
1.583271450999837
 30
0.0
 11
-10.18624641735655
 21
1.554021850999837
 31
0.0
  0
LINE
  5
249
330
1F
100
AcDbEntity
  8
0
100
AcDbLine
 10
-10.18624641735655
 20
1.554021850999837
 30
0.0
 11
-10.24374001735655
 21
1.544942850999837
 31
0.0
  0
LINE
  5
24A
330
1F
100
AcDbEntity
  8
0
100
AcDbLine
 10
-10.55742881735655
 20
1.567133650999833
 30
0.0
 11
-10.60180881735655
 21
1.575202450999836
 31
0.0
  0
LINE
  5
24B
330
1F
100
AcDbEntity
  8
0
100
AcDbLine
 10
-10.60180881735655
 20
1.575202450999836
 30
0.0
 11
-10.63610301735655
 21
1.599410650999836
 31
0.0
  0
LINE
  5
24C
330
1F
100
AcDbEntity
  8
0
100
AcDbLine
 10
-10.63610301735655
 20
1.599410650999836
 30
0.0
 11
-10.65728381735655
 21
1.637739050999838
 31
0.0
  0
LINE
  5
24D
330
1F
100
AcDbEntity
  8
0
100
AcDbLine
 10
-10.65728381735655
 20
1.637739050999838
 30
0.0
 11
-10.66535261735655
 21
1.689179650999837
 31
0.0
  0
LINE
  5
24E
330
1F
100
AcDbEntity
  8
0
100
AcDbLine
 10
-10.66535261735655
 20
1.689179650999837
 30
0.0
 11
-10.65728381735655
 21
1.739611450999835
 31
0.0
  0
LINE
  5
24F
330
1F
100
AcDbEntity
  8
0
100
AcDbLine
 10
-10.65728381735655
 20
1.739611450999835
 30
0.0
 11
-10.63610301735655
 21
1.777939850999837
 31
0.0
  0
LINE
  5
250
330
1F
100
AcDbEntity
  8
0
100
AcDbLine
 10
-10.63610301735655
 20
1.777939850999837
 30
0.0
 11
-10.60180881735655
 21
1.802148050999837
 31
0.0
  0
LINE
  5
251
330
1F
100
AcDbEntity
  8
0
100
AcDbLine
 10
-10.60180881735655
 20
1.802148050999837
 30
0.0
 11
-10.55742881735655
 21
1.811225450999832
 31
0.0
  0
LINE
  5
252
330
1F
100
AcDbEntity
  8
0
100
AcDbLine
 10
-10.55742881735655
 20
1.811225450999832
 30
0.0
 11
-10.51203841735655
 21
1.802148050999837
 31
0.0
  0
LINE
  5
253
330
1F
100
AcDbEntity
  8
0
100
AcDbLine
 10
-10.51203841735655
 20
1.802148050999837
 30
0.0
 11
-10.47673561735655
 21
1.777939850999837
 31
0.0
  0
LINE
  5
254
330
1F
100
AcDbEntity
  8
0
100
AcDbLine
 10
-10.47673561735655
 20
1.777939850999837
 30
0.0
 11
-10.45353781735655
 21
1.739611450999835
 31
0.0
  0
LINE
  5
255
330
1F
100
AcDbEntity
  8
0
100
AcDbLine
 10
-10.45353781735655
 20
1.739611450999835
 30
0.0
 11
-10.44647741735655
 21
1.689179650999837
 31
0.0
  0
LINE
  5
256
330
1F
100
AcDbEntity
  8
0
100
AcDbLine
 10
-10.44647741735655
 20
1.689179650999837
 30
0.0
 11
-10.45454641735655
 21
1.637739050999838
 31
0.0
  0
LINE
  5
257
330
1F
100
AcDbEntity
  8
0
100
AcDbLine
 10
-10.45454641735655
 20
1.637739050999838
 30
0.0
 11
-10.47673561735655
 21
1.599410650999836
 31
0.0
  0
LINE
  5
258
330
1F
100
AcDbEntity
  8
0
100
AcDbLine
 10
-10.47673561735655
 20
1.599410650999836
 30
0.0
 11
-10.51203841735655
 21
1.575202450999836
 31
0.0
  0
LINE
  5
259
330
1F
100
AcDbEntity
  8
0
100
AcDbLine
 10
-10.51203841735655
 20
1.575202450999836
 30
0.0
 11
-10.55742881735655
 21
1.567133650999833
 31
0.0
  0
LINE
  5
25A
330
1F
100
AcDbEntity
  8
0
100
AcDbLine
 10
-8.89240481735655
 20
-2.271628149000165
 30
0.0
 11
-9.641001017356553
 21
-2.271628149000165
 31
0.0
  0
LINE
  5
25B
330
1F
100
AcDbEntity
  8
0
100
AcDbLine
 10
-8.89240481735655
 20
3.408373650999835
 30
0.0
 11
-9.641001017356553
 21
3.408373650999835
 31
0.0
  0
LINE
  5
25C
330
1F
100
AcDbEntity
  8
0
100
AcDbLine
 10
-9.537473217356549
 20
3.022002650999836
 30
0.0
 11
-9.641001017356553
 21
3.408373650999835
 31
0.0
  0
LINE
  5
25D
330
1F
100
AcDbEntity
  8
0
100
AcDbLine
 10
-9.641001017356553
 20
3.408373650999835
 30
0.0
 11
-9.744529017356552
 21
3.022002650999836
 31
0.0
  0
LINE
  5
25E
330
1F
100
AcDbEntity
  8
0
100
AcDbLine
 10
-9.744529017356552
 20
-1.885257349000164
 30
0.0
 11
-9.641001017356553
 21
-2.271628149000165
 31
0.0
  0
LINE
  5
25F
330
1F
100
AcDbEntity
  8
0
100
AcDbLine
 10
-9.641001017356553
 20
-2.271628149000165
 30
0.0
 11
-9.537473217356549
 21
-1.885257349000164
 31
0.0
  0
LINE
  5
260
330
1F
100
AcDbEntity
  8
0
100
AcDbLine
 10
-9.641001017356553
 20
-2.271628149000165
 30
0.0
 11
-9.641001017356553
 21
3.408373650999835
 31
0.0
  0
LINE
  5
261
330
1F
100
AcDbEntity
  8
0
100
AcDbLine
 10
-5.464089217356554
 20
-11.66134374900017
 30
0.0
 11
-5.448958617356552
 21
-11.74102594900016
 31
0.0
  0
LINE
  5
262
330
1F
100
AcDbEntity
  8
0
100
AcDbLine
 10
-5.448958617356552
 20
-11.74102594900016
 30
0.0
 11
-5.405587017356553
 21
-11.80255314900016
 31
0.0
  0
LINE
  5
263
330
1F
100
AcDbEntity
  8
0
100
AcDbLine
 10
-5.405587017356553
 20
-11.80255314900016
 30
0.0
 11
-5.336998817356555
 21
-11.84088254900016
 31
0.0
  0
LINE
  5
264
330
1F
100
AcDbEntity
  8
0
100
AcDbLine
 10
-5.336998817356555
 20
-11.84088254900016
 30
0.0
 11
-5.246221217356551
 21
-11.85500374900016
 31
0.0
  0
LINE
  5
265
330
1F
100
AcDbEntity
  8
0
100
AcDbLine
 10
-5.246221217356551
 20
-11.85500374900016
 30
0.0
 11
-5.186711817356549
 21
-11.84794274900016
 31
0.0
  0
LINE
  5
266
330
1F
100
AcDbEntity
  8
0
100
AcDbLine
 10
-5.186711817356549
 20
-11.84794274900016
 30
0.0
 11
-5.133251217356551
 21
-11.82978794900016
 31
0.0
  0
LINE
  5
267
330
1F
100
AcDbEntity
  8
0
100
AcDbLine
 10
-5.133251217356551
 20
-11.82978794900016
 30
0.0
 11
-5.087862417356552
 21
-11.79851954900016
 31
0.0
  0
LINE
  5
268
330
1F
100
AcDbEntity
  8
0
100
AcDbLine
 10
-5.087862417356552
 20
-11.79851954900016
 30
0.0
 11
-5.049535417356552
 21
-11.75413934900016
 31
0.0
  0
LINE
  5
269
330
1F
100
AcDbEntity
  8
0
100
AcDbLine
 10
-5.049535417356552
 20
-11.75413934900016
 30
0.0
 11
-5.019274217356553
 21
-11.69866294900016
 31
0.0
  0
LINE
  5
26A
330
1F
100
AcDbEntity
  8
0
100
AcDbLine
 10
-5.019274217356553
 20
-11.69866294900016
 30
0.0
 11
-4.997084817356554
 21
-11.63007554900016
 31
0.0
  0
LINE
  5
26B
330
1F
100
AcDbEntity
  8
0
100
AcDbLine
 10
-4.997084817356554
 20
-11.63007554900016
 30
0.0
 11
-4.983971417356552
 21
-11.55140114900016
 31
0.0
  0
LINE
  5
26C
330
1F
100
AcDbEntity
  8
0
100
AcDbLine
 10
-4.983971417356552
 20
-11.55140114900016
 30
0.0
 11
-4.978929817356555
 21
-11.46062274900016
 31
0.0
  0
LINE
  5
26D
330
1F
100
AcDbEntity
  8
0
100
AcDbLine
 10
-4.978929817356555
 20
-11.46062274900016
 30
0.0
 11
-4.996077617356552
 21
-11.31840414900016
 31
0.0
  0
LINE
  5
26E
330
1F
100
AcDbEntity
  8
0
100
AcDbLine
 10
-4.996077617356552
 20
-11.31840414900016
 30
0.0
 11
-5.045501017356551
 21
-11.21451314900017
 31
0.0
  0
LINE
  5
26F
330
1F
100
AcDbEntity
  8
0
100
AcDbLine
 10
-5.045501017356551
 20
-11.21451314900017
 30
0.0
 11
-5.124175217356552
 21
-11.15197794900016
 31
0.0
  0
LINE
  5
270
330
1F
100
AcDbEntity
  8
0
100
AcDbLine
 10
-5.124175217356552
 20
-11.15197794900016
 30
0.0
 11
-5.232100617356553
 21
-11.12978794900016
 31
0.0
  0
LINE
  5
271
330
1F
100
AcDbEntity
  8
0
100
AcDbLine
 10
-5.232100617356553
 20
-11.12978794900016
 30
0.0
 11
-5.330947017356549
 21
-11.14794274900016
 31
0.0
  0
LINE
  5
272
330
1F
100
AcDbEntity
  8
0
100
AcDbLine
 10
-5.330947017356549
 20
-11.14794274900016
 30
0.0
 11
-5.405587017356553
 21
-11.19635814900017
 31
0.0
  0
LINE
  5
273
330
1F
100
AcDbEntity
  8
0
100
AcDbLine
 10
-5.405587017356553
 20
-11.19635814900017
 30
0.0
 11
-5.454003217356551
 21
-11.27099734900017
 31
0.0
  0
LINE
  5
274
330
1F
100
AcDbEntity
  8
0
100
AcDbLine
 10
-5.454003217356551
 20
-11.27099734900017
 30
0.0
 11
-5.47014081735655
 21
-11.36480154900016
 31
0.0
  0
LINE
  5
275
330
1F
100
AcDbEntity
  8
0
100
AcDbLine
 10
-5.47014081735655
 20
-11.36480154900016
 30
0.0
 11
-5.454003217356551
 21
-11.46163214900016
 31
0.0
  0
LINE
  5
276
330
1F
100
AcDbEntity
  8
0
100
AcDbLine
 10
-5.454003217356551
 20
-11.46163214900016
 30
0.0
 11
-5.406594017356552
 21
-11.53526274900016
 31
0.0
  0
LINE
  5
277
330
1F
100
AcDbEntity
  8
0
100
AcDbLine
 10
-5.406594017356552
 20
-11.53526274900016
 30
0.0
 11
-5.335991617356553
 21
-11.58166094900016
 31
0.0
  0
LINE
  5
278
330
1F
100
AcDbEntity
  8
0
100
AcDbLine
 10
-5.335991617356553
 20
-11.58166094900016
 30
0.0
 11
-5.246221217356551
 21
-11.59679074900017
 31
0.0
  0
LINE
  5
279
330
1F
100
AcDbEntity
  8
0
100
AcDbLine
 10
-5.246221217356551
 20
-11.59679074900017
 30
0.0
 11
-5.151409217356551
 21
-11.57762574900016
 31
0.0
  0
LINE
  5
27A
330
1F
100
AcDbEntity
  8
0
100
AcDbLine
 10
-5.151409217356551
 20
-11.57762574900016
 30
0.0
 11
-5.079793617356549
 21
-11.51912434900017
 31
0.0
  0
LINE
  5
27B
330
1F
100
AcDbEntity
  8
0
100
AcDbLine
 10
-5.079793617356549
 20
-11.51912434900017
 30
0.0
 11
-5.095931217356555
 21
-11.63108414900016
 31
0.0
  0
LINE
  5
27C
330
1F
100
AcDbEntity
  8
0
100
AcDbLine
 10
-5.095931217356555
 20
-11.63108414900016
 30
0.0
 11
-5.128209617356554
 21
-11.71076694900016
 31
0.0
  0
LINE
  5
27D
330
1F
100
AcDbEntity
  8
0
100
AcDbLine
 10
-5.128209617356554
 20
-11.71076694900016
 30
0.0
 11
-5.177632817356549
 21
-11.75817294900016
 31
0.0
  0
LINE
  5
27E
330
1F
100
AcDbEntity
  8
0
100
AcDbLine
 10
-5.177632817356549
 20
-11.75817294900016
 30
0.0
 11
-5.245211017356548
 21
-11.77330374900016
 31
0.0
  0
LINE
  5
27F
330
1F
100
AcDbEntity
  8
0
100
AcDbLine
 10
-5.245211017356548
 20
-11.77330374900016
 30
0.0
 11
-5.297661617356552
 21
-11.76624254900016
 31
0.0
  0
LINE
  5
280
330
1F
100
AcDbEntity
  8
0
100
AcDbLine
 10
-5.297661617356552
 20
-11.76624254900016
 30
0.0
 11
-5.335991617356553
 21
-11.74405254900016
 31
0.0
  0
LINE
  5
281
330
1F
100
AcDbEntity
  8
0
100
AcDbLine
 10
-5.335991617356553
 20
-11.74405254900016
 30
0.0
 11
-5.361205217356552
 21
-11.70874974900016
 31
0.0
  0
LINE
  5
282
330
1F
100
AcDbEntity
  8
0
100
AcDbLine
 10
-5.361205217356552
 20
-11.70874974900016
 30
0.0
 11
-5.371291417356554
 21
-11.66134374900017
 31
0.0
  0
LINE
  5
283
330
1F
100
AcDbEntity
  8
0
100
AcDbLine
 10
-5.371291417356554
 20
-11.66134374900017
 30
0.0
 11
-5.464089217356554
 21
-11.66134374900017
 31
0.0
  0
LINE
  5
284
330
1F
100
AcDbEntity
  8
0
100
AcDbLine
 10
-5.372301417356553
 20
-11.36379274900017
 30
0.0
 11
-5.362215417356555
 21
-11.30125694900016
 31
0.0
  0
LINE
  5
285
330
1F
100
AcDbEntity
  8
0
100
AcDbLine
 10
-5.362215417356555
 20
-11.30125694900016
 30
0.0
 11
-5.333971417356552
 21
-11.25183294900016
 31
0.0
  0
LINE
  5
286
330
1F
100
AcDbEntity
  8
0
100
AcDbLine
 10
-5.333971417356552
 20
-11.25183294900016
 30
0.0
 11
-5.289592817356549
 21
-11.22056474900016
 31
0.0
  0
LINE
  5
287
330
1F
100
AcDbEntity
  8
0
100
AcDbLine
 10
-5.289592817356549
 20
-11.22056474900016
 30
0.0
 11
-5.232100617356553
 21
-11.20946994900016
 31
0.0
  0
LINE
  5
288
330
1F
100
AcDbEntity
  8
0
100
AcDbLine
 10
-5.232100617356553
 20
-11.20946994900016
 30
0.0
 11
-5.172588417356554
 21
-11.22056474900016
 31
0.0
  0
LINE
  5
289
330
1F
100
AcDbEntity
  8
0
100
AcDbLine
 10
-5.172588417356554
 20
-11.22056474900016
 30
0.0
 11
-5.127199617356549
 21
-11.25183294900016
 31
0.0
  0
LINE
  5
28A
330
1F
100
AcDbEntity
  8
0
100
AcDbLine
 10
-5.127199617356549
 20
-11.25183294900016
 30
0.0
 11
-5.098958617356553
 21
-11.30024834900016
 31
0.0
  0
LINE
  5
28B
330
1F
100
AcDbEntity
  8
0
100
AcDbLine
 10
-5.098958617356553
 20
-11.30024834900016
 30
0.0
 11
-5.087862417356552
 21
-11.36278414900016
 31
0.0
  0
LINE
  5
28C
330
1F
100
AcDbEntity
  8
0
100
AcDbLine
 10
-5.087862417356552
 20
-11.36278414900016
 30
0.0
 11
-5.098958617356553
 21
-11.42632874900016
 31
0.0
  0
LINE
  5
28D
330
1F
100
AcDbEntity
  8
0
100
AcDbLine
 10
-5.098958617356553
 20
-11.42632874900016
 30
0.0
 11
-5.127199617356549
 21
-11.47373554900016
 31
0.0
  0
LINE
  5
28E
330
1F
100
AcDbEntity
  8
0
100
AcDbLine
 10
-5.127199617356549
 20
-11.47373554900016
 30
0.0
 11
-5.173598417356553
 21
-11.50298654900016
 31
0.0
  0
LINE
  5
28F
330
1F
100
AcDbEntity
  8
0
100
AcDbLine
 10
-5.173598417356553
 20
-11.50298654900016
 30
0.0
 11
-5.235125017356556
 21
-11.51307254900017
 31
0.0
  0
LINE
  5
290
330
1F
100
AcDbEntity
  8
0
100
AcDbLine
 10
-5.235125017356556
 20
-11.51307254900017
 30
0.0
 11
-5.290599817356553
 21
-11.50298654900016
 31
0.0
  0
LINE
  5
291
330
1F
100
AcDbEntity
  8
0
100
AcDbLine
 10
-5.290599817356553
 20
-11.50298654900016
 30
0.0
 11
-5.333971417356552
 21
-11.47373554900016
 31
0.0
  0
LINE
  5
292
330
1F
100
AcDbEntity
  8
0
100
AcDbLine
 10
-5.333971417356552
 20
-11.47373554900016
 30
0.0
 11
-5.362215417356555
 21
-11.42733814900016
 31
0.0
  0
LINE
  5
293
330
1F
100
AcDbEntity
  8
0
100
AcDbLine
 10
-5.362215417356555
 20
-11.42733814900016
 30
0.0
 11
-5.372301417356553
 21
-11.36379274900017
 31
0.0
  0
LINE
  5
294
330
1F
100
AcDbEntity
  8
0
100
AcDbLine
 10
-4.717891617356551
 20
-11.49290054900016
 30
0.0
 11
-4.702761017356554
 21
-11.65125694900016
 31
0.0
  0
LINE
  5
295
330
1F
100
AcDbEntity
  8
0
100
AcDbLine
 10
-4.702761017356554
 20
-11.65125694900016
 30
0.0
 11
-4.655355017356555
 21
-11.76422534900016
 31
0.0
  0
LINE
  5
296
330
1F
100
AcDbEntity
  8
0
100
AcDbLine
 10
-4.655355017356555
 20
-11.76422534900016
 30
0.0
 11
-4.579708017356553
 21
-11.83281374900016
 31
0.0
  0
LINE
  5
297
330
1F
100
AcDbEntity
  8
0
100
AcDbLine
 10
-4.579708017356553
 20
-11.83281374900016
 30
0.0
 11
-4.474810017356549
 21
-11.85500374900016
 31
0.0
  0
LINE
  5
298
330
1F
100
AcDbEntity
  8
0
100
AcDbLine
 10
-4.474810017356549
 20
-11.85500374900016
 30
0.0
 11
-4.370919017356555
 21
-11.83281374900016
 31
0.0
  0
LINE
  5
299
330
1F
100
AcDbEntity
  8
0
100
AcDbLine
 10
-4.370919017356555
 20
-11.83281374900016
 30
0.0
 11
-4.295269017356552
 21
-11.76422534900016
 31
0.0
  0
LINE
  5
29A
330
1F
100
AcDbEntity
  8
0
100
AcDbLine
 10
-4.295269017356552
 20
-11.76422534900016
 30
0.0
 11
-4.248873217356554
 21
-11.65125694900016
 31
0.0
  0
LINE
  5
29B
330
1F
100
AcDbEntity
  8
0
100
AcDbLine
 10
-4.248873217356554
 20
-11.65125694900016
 30
0.0
 11
-4.232732417356555
 21
-11.49290054900016
 31
0.0
  0
LINE
  5
29C
330
1F
100
AcDbEntity
  8
0
100
AcDbLine
 10
-4.232732417356555
 20
-11.49290054900016
 30
0.0
 11
-4.248873217356554
 21
-11.33555034900017
 31
0.0
  0
LINE
  5
29D
330
1F
100
AcDbEntity
  8
0
100
AcDbLine
 10
-4.248873217356554
 20
-11.33555034900017
 30
0.0
 11
-4.268035017356553
 21
-11.27301534900016
 31
0.0
  0
LINE
  5
29E
330
1F
100
AcDbEntity
  8
0
100
AcDbLine
 10
-4.268035017356553
 20
-11.27301534900016
 30
0.0
 11
-4.295269017356552
 21
-11.22157414900016
 31
0.0
  0
LINE
  5
29F
330
1F
100
AcDbEntity
  8
0
100
AcDbLine
 10
-4.295269017356552
 20
-11.22157414900016
 30
0.0
 11
-4.370919017356555
 21
-11.15298574900016
 31
0.0
  0
LINE
  5
2A0
330
1F
100
AcDbEntity
  8
0
100
AcDbLine
 10
-4.370919017356555
 20
-11.15298574900016
 30
0.0
 11
-4.474810017356549
 21
-11.12978794900016
 31
0.0
  0
LINE
  5
2A1
330
1F
100
AcDbEntity
  8
0
100
AcDbLine
 10
-4.474810017356549
 20
-11.12978794900016
 30
0.0
 11
-4.579708017356553
 21
-11.15298574900016
 31
0.0
  0
LINE
  5
2A2
330
1F
100
AcDbEntity
  8
0
100
AcDbLine
 10
-4.579708017356553
 20
-11.15298574900016
 30
0.0
 11
-4.655355017356555
 21
-11.22258274900016
 31
0.0
  0
LINE
  5
2A3
330
1F
100
AcDbEntity
  8
0
100
AcDbLine
 10
-4.655355017356555
 20
-11.22258274900016
 30
0.0
 11
-4.702761017356554
 21
-11.33555034900017
 31
0.0
  0
LINE
  5
2A4
330
1F
100
AcDbEntity
  8
0
100
AcDbLine
 10
-4.702761017356554
 20
-11.33555034900017
 30
0.0
 11
-4.717891617356551
 21
-11.49290054900016
 31
0.0
  0
LINE
  5
2A5
330
1F
100
AcDbEntity
  8
0
100
AcDbLine
 10
-4.62106241735655
 20
-11.49290054900016
 30
0.0
 11
-4.612993617356553
 21
-11.37085394900016
 31
0.0
  0
LINE
  5
2A6
330
1F
100
AcDbEntity
  8
0
100
AcDbLine
 10
-4.612993617356553
 20
-11.37085394900016
 30
0.0
 11
-4.587777017356553
 21
-11.28310134900016
 31
0.0
  0
LINE
  5
2A7
330
1F
100
AcDbEntity
  8
0
100
AcDbLine
 10
-4.587777017356553
 20
-11.28310134900016
 30
0.0
 11
-4.542388217356554
 21
-11.23166014900016
 31
0.0
  0
LINE
  5
2A8
330
1F
100
AcDbEntity
  8
0
100
AcDbLine
 10
-4.542388217356554
 20
-11.23166014900016
 30
0.0
 11
-4.474810017356549
 21
-11.21350514900016
 31
0.0
  0
LINE
  5
2A9
330
1F
100
AcDbEntity
  8
0
100
AcDbLine
 10
-4.474810017356549
 20
-11.21350514900016
 30
0.0
 11
-4.408239017356551
 21
-11.23166014900016
 31
0.0
  0
LINE
  5
2AA
330
1F
100
AcDbEntity
  8
0
100
AcDbLine
 10
-4.408239017356551
 20
-11.23166014900016
 30
0.0
 11
-4.362850217356552
 21
-11.28310134900016
 31
0.0
  0
LINE
  5
2AB
330
1F
100
AcDbEntity
  8
0
100
AcDbLine
 10
-4.362850217356552
 20
-11.28310134900016
 30
0.0
 11
-4.337633417356549
 21
-11.37085394900016
 31
0.0
  0
LINE
  5
2AC
330
1F
100
AcDbEntity
  8
0
100
AcDbLine
 10
-4.337633417356549
 20
-11.37085394900016
 30
0.0
 11
-4.329564617356551
 21
-11.49290054900016
 31
0.0
  0
LINE
  5
2AD
330
1F
100
AcDbEntity
  8
0
100
AcDbLine
 10
-4.329564617356551
 20
-11.49290054900016
 30
0.0
 11
-4.337633417356549
 21
-11.61595494900016
 31
0.0
  0
LINE
  5
2AE
330
1F
100
AcDbEntity
  8
0
100
AcDbLine
 10
-4.337633417356549
 20
-11.61595494900016
 30
0.0
 11
-4.362850217356552
 21
-11.70370674900016
 31
0.0
  0
LINE
  5
2AF
330
1F
100
AcDbEntity
  8
0
100
AcDbLine
 10
-4.362850217356552
 20
-11.70370674900016
 30
0.0
 11
-4.408239017356551
 21
-11.75514714900016
 31
0.0
  0
LINE
  5
2B0
330
1F
100
AcDbEntity
  8
0
100
AcDbLine
 10
-4.408239017356551
 20
-11.75514714900016
 30
0.0
 11
-4.474810017356549
 21
-11.77229434900016
 31
0.0
  0
LINE
  5
2B1
330
1F
100
AcDbEntity
  8
0
100
AcDbLine
 10
-4.474810017356549
 20
-11.77229434900016
 30
0.0
 11
-4.542388217356554
 21
-11.75514714900016
 31
0.0
  0
LINE
  5
2B2
330
1F
100
AcDbEntity
  8
0
100
AcDbLine
 10
-4.542388217356554
 20
-11.75514714900016
 30
0.0
 11
-4.587777017356553
 21
-11.70370674900016
 31
0.0
  0
LINE
  5
2B3
330
1F
100
AcDbEntity
  8
0
100
AcDbLine
 10
-4.587777017356553
 20
-11.70370674900016
 30
0.0
 11
-4.612993617356553
 21
-11.61595494900016
 31
0.0
  0
LINE
  5
2B4
330
1F
100
AcDbEntity
  8
0
100
AcDbLine
 10
-4.612993617356553
 20
-11.61595494900016
 30
0.0
 11
-4.62106241735655
 21
-11.49290054900016
 31
0.0
  0
LINE
  5
2B5
330
1F
100
AcDbEntity
  8
0
100
AcDbLine
 10
-4.03120641735655
 20
-11.13482934900017
 30
0.0
 11
-3.984539017356553
 21
-11.13482934900017
 31
0.0
  0
LINE
  5
2B6
330
1F
100
AcDbEntity
  8
0
100
AcDbLine
 10
-3.984539017356553
 20
-11.13482934900017
 30
0.0
 11
-3.937871617356549
 21
-11.08816334900016
 31
0.0
  0
LINE
  5
2B7
330
1F
100
AcDbEntity
  8
0
100
AcDbLine
 10
-3.937871617356549
 20
-11.08816334900016
 30
0.0
 11
-3.937871617356549
 21
-11.04149674900016
 31
0.0
  0
LINE
  5
2B8
330
1F
100
AcDbEntity
  8
0
100
AcDbLine
 10
-3.937871617356549
 20
-11.04149674900016
 30
0.0
 11
-3.984539017356553
 21
-10.99482994900016
 31
0.0
  0
LINE
  5
2B9
330
1F
100
AcDbEntity
  8
0
100
AcDbLine
 10
-3.984539017356553
 20
-10.99482994900016
 30
0.0
 11
-4.03120641735655
 21
-10.99482994900016
 31
0.0
  0
LINE
  5
2BA
330
1F
100
AcDbEntity
  8
0
100
AcDbLine
 10
-4.03120641735655
 20
-10.99482994900016
 30
0.0
 11
-4.077874017356552
 21
-11.04149674900016
 31
0.0
  0
LINE
  5
2BB
330
1F
100
AcDbEntity
  8
0
100
AcDbLine
 10
-4.077874017356552
 20
-11.04149674900016
 30
0.0
 11
-4.077874017356552
 21
-11.08816334900016
 31
0.0
  0
LINE
  5
2BC
330
1F
100
AcDbEntity
  8
0
100
AcDbLine
 10
-4.077874017356552
 20
-11.08816334900016
 30
0.0
 11
-4.03120641735655
 21
-11.13482934900017
 31
0.0
  0
LINE
  5
2BD
330
1F
100
AcDbEntity
  8
0
100
AcDbLine
 10
-9.514586617356551
 20
-9.714471149000165
 30
0.0
 11
-9.854883617356549
 21
-10.05476654900017
 31
0.0
  0
LINE
  5
2BE
330
1F
100
AcDbEntity
  8
0
100
AcDbLine
 10
0.331098182643443
 20
-9.714471149000165
 30
0.0
 11
0.6713935826434482
 21
-10.05476654900017
 31
0.0
  0
LINE
  5
2BF
330
1F
100
AcDbEntity
  8
0
100
AcDbLine
 10
-9.508472417356552
 20
-10.25476654900016
 30
0.0
 11
-9.854883617356549
 21
-10.05476654900017
 31
0.0
  0
LINE
  5
2C0
330
1F
100
AcDbEntity
  8
0
100
AcDbLine
 10
-9.854883617356549
 20
-10.05476654900017
 30
0.0
 11
-9.654882017356552
 21
-10.40117694900016
 31
0.0
  0
LINE
  5
2C1
330
1F
100
AcDbEntity
  8
0
100
AcDbLine
 10
0.4713935826434485
 20
-10.40117694900016
 30
0.0
 11
0.6713935826434482
 21
-10.05476654900017
 31
0.0
  0
LINE
  5
2C2
330
1F
100
AcDbEntity
  8
0
100
AcDbLine
 10
0.6713935826434482
 20
-10.05476654900017
 30
0.0
 11
0.3249855826434497
 21
-10.25476654900016
 31
0.0
  0
LINE
  5
2C3
330
1F
100
AcDbEntity
  8
0
100
AcDbLine
 10
-9.854883617356549
 20
-10.05476654900017
 30
0.0
 11
-9.48344411943949
 21
-10.40166636758934
 31
0.0
  0
LINE
  5
2C4
330
1F
100
AcDbEntity
  8
0
100
AcDbLine
 10
-9.48344411943949
 20
-10.40166636758934
 30
0.0
 11
-9.089197913168128
 21
-10.72240945265679
 31
0.0
  0
LINE
  5
2C5
330
1F
100
AcDbEntity
  8
0
100
AcDbLine
 10
-9.089197913168128
 20
-10.72240945265679
 30
0.0
 11
-8.673982505383576
 21
-11.01550050150724
 31
0.0
  0
LINE
  5
2C6
330
1F
100
AcDbEntity
  8
0
100
AcDbLine
 10
-8.673982505383576
 20
-11.01550050150724
 30
0.0
 11
-8.239733821644185
 21
-11.27957298861742
 31
0.0
  0
LINE
  5
2C7
330
1F
100
AcDbEntity
  8
0
100
AcDbLine
 10
-8.239733821644185
 20
-11.27957298861742
 30
0.0
 11
-7.788476529411156
 21
-11.51339568637036
 31
0.0
  0
LINE
  5
2C8
330
1F
100
AcDbEntity
  8
0
100
AcDbLine
 10
-7.788476529411156
 20
-11.51339568637036
 30
0.0
 11
-7.322314598115889
 21
-11.71587840560589
 31
0.0
  0
LINE
  5
2C9
330
1F
100
AcDbEntity
  8
0
100
AcDbLine
 10
-7.322314598115889
 20
-11.71587840560589
 30
0.0
 11
-6.843421489485008
 21
-11.88607707858485
 31
0.0
  0
LINE
  5
2CA
330
1F
100
AcDbEntity
  8
0
100
AcDbLine
 10
-6.843421489485008
 20
-11.88607707858485
 30
0.0
 11
-6.354030023860279
 21
-12.02319816066791
 31
0.0
  0
LINE
  5
2CB
330
1F
100
AcDbEntity
  8
0
100
AcDbLine
 10
-6.354030023860279
 20
-12.02319816066791
 30
0.0
 11
-5.856421969761317
 21
-12.12660233018632
 31
0.0
  0
LINE
  5
2CC
330
1F
100
AcDbEntity
  8
0
100
AcDbLine
 10
-5.856421969761317
 20
-12.12660233018632
 30
0.0
 11
-5.352917405229321
 21
-12.19580746925414
 31
0.0
  0
LINE
  5
2CD
330
1F
100
AcDbEntity
  8
0
100
AcDbLine
 10
-5.352917405229321
 20
-12.19580746925414
 30
0.0
 11
-4.845863900554196
 21
-12.23049091162398
 31
0.0
  0
LINE
  5
2CE
330
1F
100
AcDbEntity
  8
0
100
AcDbLine
 10
-4.845863900554196
 20
-12.23049091162398
 30
0.0
 11
-4.337625572820103
 21
-12.23049094710571
 31
0.0
  0
LINE
  5
2CF
330
1F
100
AcDbEntity
  8
0
100
AcDbLine
 10
-4.337625572820103
 20
-12.23049094710571
 30
0.0
 11
-3.83057206330226
 21
-12.1958075755339
 31
0.0
  0
LINE
  5
2D0
330
1F
100
AcDbEntity
  8
0
100
AcDbLine
 10
-3.83057206330226
 20
-12.1958075755339
 30
0.0
 11
-3.327067489107413
 21
-12.12660250676858
 31
0.0
  0
LINE
  5
2D1
330
1F
100
AcDbEntity
  8
0
100
AcDbLine
 10
-3.327067489107413
 20
-12.12660250676858
 30
0.0
 11
-2.829459420570512
 21
-12.02319840672936
 31
0.0
  0
LINE
  5
2D2
330
1F
100
AcDbEntity
  8
0
100
AcDbLine
 10
-2.829459420570512
 20
-12.02319840672936
 30
0.0
 11
-2.340067935800069
 21
-11.88607739297824
 31
0.0
  0
LINE
  5
2D3
330
1F
100
AcDbEntity
  8
0
100
AcDbLine
 10
-2.340067935800069
 20
-11.88607739297824
 30
0.0
 11
-1.861174803404978
 21
-11.71587878686537
 31
0.0
  0
LINE
  5
2D4
330
1F
100
AcDbEntity
  8
0
100
AcDbLine
 10
-1.861174803404978
 20
-11.71587878686537
 30
0.0
 11
-1.395012843837796
 21
-11.51339613271833
 31
0.0
  0
LINE
  5
2D5
330
1F
100
AcDbEntity
  8
0
100
AcDbLine
 10
-1.395012843837796
 20
-11.51339613271833
 30
0.0
 11
-0.9437555189569611
 21
-11.2795734979728
 31
0.0
  0
LINE
  5
2D6
330
1F
100
AcDbEntity
  8
0
100
AcDbLine
 10
-0.9437555189569611
 20
-11.2795734979728
 30
0.0
 11
-0.5095067983460969
 21
-11.01550107149517
 31
0.0
  0
LINE
  5
2D7
330
1F
100
AcDbEntity
  8
0
100
AcDbLine
 10
-0.5095067983460969
 20
-11.01550107149517
 30
0.0
 11
-0.0942913496383195
 21
-10.72241008061973
 31
0.0
  0
LINE
  5
2D8
330
1F
100
AcDbEntity
  8
0
100
AcDbLine
 10
-0.0942913496383195
 20
-10.72241008061973
 30
0.0
 11
0.2999549014172225
 21
-10.40166705059944
 31
0.0
  0
LINE
  5
2D9
330
1F
100
AcDbEntity
  8
0
100
AcDbLine
 10
0.2999549014172225
 20
-10.40166705059944
 30
0.0
 11
0.6713935826434482
 21
-10.05476654900017
 31
0.0
  0
LINE
  5
2DA
330
1F
100
AcDbEntity
  8
0
100
AcDbLine
 10
6.349567382643444
 20
3.180817650999836
 30
0.0
 11
6.44135518264345
 21
3.180817650999836
 31
0.0
  0
LINE
  5
2DB
330
1F
100
AcDbEntity
  8
0
100
AcDbLine
 10
6.44135518264345
 20
3.180817650999836
 30
0.0
 11
6.44135518264345
 21
3.885860850999832
 31
0.0
  0
LINE
  5
2DC
330
1F
100
AcDbEntity
  8
0
100
AcDbLine
 10
6.44135518264345
 20
3.885860850999832
 30
0.0
 11
6.372766982643451
 21
3.885860850999832
 31
0.0
  0
LINE
  5
2DD
330
1F
100
AcDbEntity
  8
0
100
AcDbLine
 10
6.372766982643451
 20
3.885860850999832
 30
0.0
 11
6.354611982643448
 21
3.824334250999835
 31
0.0
  0
LINE
  5
2DE
330
1F
100
AcDbEntity
  8
0
100
AcDbLine
 10
6.354611982643448
 20
3.824334250999835
 30
0.0
 11
6.318299182643441
 21
3.782979850999832
 31
0.0
  0
LINE
  5
2DF
330
1F
100
AcDbEntity
  8
0
100
AcDbLine
 10
6.318299182643441
 20
3.782979850999832
 30
0.0
 11
6.262824182643453
 21
3.758773450999834
 31
0.0
  0
LINE
  5
2E0
330
1F
100
AcDbEntity
  8
0
100
AcDbLine
 10
6.262824182643453
 20
3.758773450999834
 30
0.0
 11
6.186167182643462
 21
3.750701450999832
 31
0.0
  0
LINE
  5
2E1
330
1F
100
AcDbEntity
  8
0
100
AcDbLine
 10
6.186167182643462
 20
3.750701450999832
 30
0.0
 11
6.186167182643462
 21
3.679088850999832
 31
0.0
  0
LINE
  5
2E2
330
1F
100
AcDbEntity
  8
0
100
AcDbLine
 10
6.186167182643462
 20
3.679088850999832
 30
0.0
 11
6.349567382643444
 21
3.679088850999832
 31
0.0
  0
LINE
  5
2E3
330
1F
100
AcDbEntity
  8
0
100
AcDbLine
 10
6.349567382643444
 20
3.679088850999832
 30
0.0
 11
6.349567382643444
 21
3.180817650999836
 31
0.0
  0
LINE
  5
2E4
330
1F
100
AcDbEntity
  8
0
100
AcDbLine
 10
7.045331582643449
 20
3.180817650999836
 30
0.0
 11
7.184525382643445
 21
3.180817650999836
 31
0.0
  0
LINE
  5
2E5
330
1F
100
AcDbEntity
  8
0
100
AcDbLine
 10
7.184525382643445
 20
3.180817650999836
 30
0.0
 11
7.184525382643445
 21
3.331106050999833
 31
0.0
  0
LINE
  5
2E6
330
1F
100
AcDbEntity
  8
0
100
AcDbLine
 10
7.184525382643445
 20
3.331106050999833
 30
0.0
 11
7.045331582643449
 21
3.331106050999833
 31
0.0
  0
LINE
  5
2E7
330
1F
100
AcDbEntity
  8
0
100
AcDbLine
 10
7.045331582643449
 20
3.331106050999833
 30
0.0
 11
7.045331582643449
 21
3.180817650999836
 31
0.0
  0
LINE
  5
2E8
330
1F
100
AcDbEntity
  8
0
100
AcDbLine
 10
7.737061382643447
 20
3.558051650999834
 30
0.0
 11
7.685620982643446
 21
3.529809050999833
 31
0.0
  0
LINE
  5
2E9
330
1F
100
AcDbEntity
  8
0
100
AcDbLine
 10
7.685620982643446
 20
3.529809050999833
 30
0.0
 11
7.650318182643445
 21
3.490472050999833
 31
0.0
  0
LINE
  5
2EA
330
1F
100
AcDbEntity
  8
0
100
AcDbLine
 10
7.650318182643445
 20
3.490472050999833
 30
0.0
 11
7.628125782643461
 21
3.441048850999833
 31
0.0
  0
LINE
  5
2EB
330
1F
100
AcDbEntity
  8
0
100
AcDbLine
 10
7.628125782643461
 20
3.441048850999833
 30
0.0
 11
7.621066982643451
 21
3.381538050999835
 31
0.0
  0
LINE
  5
2EC
330
1F
100
AcDbEntity
  8
0
100
AcDbLine
 10
7.621066982643451
 20
3.381538050999835
 30
0.0
 11
7.637204782643461
 21
3.291769050999834
 31
0.0
  0
LINE
  5
2ED
330
1F
100
AcDbEntity
  8
0
100
AcDbLine
 10
7.637204782643461
 20
3.291769050999834
 30
0.0
 11
7.683603782643446
 21
3.222172050999834
 31
0.0
  0
LINE
  5
2EE
330
1F
100
AcDbEntity
  8
0
100
AcDbLine
 10
7.683603782643446
 20
3.222172050999834
 30
0.0
 11
7.75925058264345
 21
3.177791850999838
 31
0.0
  0
LINE
  5
2EF
330
1F
100
AcDbEntity
  8
0
100
AcDbLine
 10
7.75925058264345
 20
3.177791850999838
 30
0.0
 11
7.862131582643444
 21
3.160645650999835
 31
0.0
  0
LINE
  5
2F0
330
1F
100
AcDbEntity
  8
0
100
AcDbLine
 10
7.862131582643444
 20
3.160645650999835
 30
0.0
 11
7.964005382643443
 21
3.177791850999838
 31
0.0
  0
LINE
  5
2F1
330
1F
100
AcDbEntity
  8
0
100
AcDbLine
 10
7.964005382643443
 20
3.177791850999838
 30
0.0
 11
8.039655382643447
 21
3.222172050999834
 31
0.0
  0
LINE
  5
2F2
330
1F
100
AcDbEntity
  8
0
100
AcDbLine
 10
8.039655382643447
 20
3.222172050999834
 30
0.0
 11
8.086051182643445
 21
3.291769050999834
 31
0.0
  0
LINE
  5
2F3
330
1F
100
AcDbEntity
  8
0
100
AcDbLine
 10
8.086051182643445
 20
3.291769050999834
 30
0.0
 11
8.103198982643447
 21
3.381538050999835
 31
0.0
  0
LINE
  5
2F4
330
1F
100
AcDbEntity
  8
0
100
AcDbLine
 10
8.103198982643447
 20
3.381538050999835
 30
0.0
 11
8.09513018264346
 21
3.441048850999833
 31
0.0
  0
LINE
  5
2F5
330
1F
100
AcDbEntity
  8
0
100
AcDbLine
 10
8.09513018264346
 20
3.441048850999833
 30
0.0
 11
8.073947982643446
 21
3.490472050999833
 31
0.0
  0
LINE
  5
2F6
330
1F
100
AcDbEntity
  8
0
100
AcDbLine
 10
8.073947982643446
 20
3.490472050999833
 30
0.0
 11
8.037638182643452
 21
3.529809050999833
 31
0.0
  0
LINE
  5
2F7
330
1F
100
AcDbEntity
  8
0
100
AcDbLine
 10
8.037638182643452
 20
3.529809050999833
 30
0.0
 11
7.987204782643454
 21
3.558051650999834
 31
0.0
  0
LINE
  5
2F8
330
1F
100
AcDbEntity
  8
0
100
AcDbLine
 10
7.987204782643454
 20
3.558051650999834
 30
0.0
 11
8.027548982643456
 21
3.582259650999837
 31
0.0
  0
LINE
  5
2F9
330
1F
100
AcDbEntity
  8
0
100
AcDbLine
 10
8.027548982643456
 20
3.582259650999837
 30
0.0
 11
8.055792982643453
 21
3.615545250999832
 31
0.0
  0
LINE
  5
2FA
330
1F
100
AcDbEntity
  8
0
100
AcDbLine
 10
8.055792982643453
 20
3.615545250999832
 30
0.0
 11
8.072940782643444
 21
3.655889450999832
 31
0.0
  0
LINE
  5
2FB
330
1F
100
AcDbEntity
  8
0
100
AcDbLine
 10
8.072940782643444
 20
3.655889450999832
 30
0.0
 11
8.07899258264346
 21
3.705312650999833
 31
0.0
  0
LINE
  5
2FC
330
1F
100
AcDbEntity
  8
0
100
AcDbLine
 10
8.07899258264346
 20
3.705312650999833
 30
0.0
 11
8.062854782643452
 21
3.776928250999835
 31
0.0
  0
LINE
  5
2FD
330
1F
100
AcDbEntity
  8
0
100
AcDbLine
 10
8.062854782643452
 20
3.776928250999835
 30
0.0
 11
8.02049038264346
 21
3.834420250999833
 31
0.0
  0
LINE
  5
2FE
330
1F
100
AcDbEntity
  8
0
100
AcDbLine
 10
8.02049038264346
 20
3.834420250999833
 30
0.0
 11
7.951901982643447
 21
3.87174025099984
 31
0.0
  0
LINE
  5
2FF
330
1F
100
AcDbEntity
  8
0
100
AcDbLine
 10
7.951901982643447
 20
3.87174025099984
 30
0.0
 11
7.862131582643444
 21
3.885860850999832
 31
0.0
  0
LINE
  5
300
330
1F
100
AcDbEntity
  8
0
100
AcDbLine
 10
7.862131582643444
 20
3.885860850999832
 30
0.0
 11
7.771353982643446
 21
3.87174025099984
 31
0.0
  0
LINE
  5
301
330
1F
100
AcDbEntity
  8
0
100
AcDbLine
 10
7.771353982643446
 20
3.87174025099984
 30
0.0
 11
7.702765582643461
 21
3.834420250999833
 31
0.0
  0
LINE
  5
302
330
1F
100
AcDbEntity
  8
0
100
AcDbLine
 10
7.702765582643461
 20
3.834420250999833
 30
0.0
 11
7.65939418264345
 21
3.776928250999835
 31
0.0
  0
LINE
  5
303
330
1F
100
AcDbEntity
  8
0
100
AcDbLine
 10
7.65939418264345
 20
3.776928250999835
 30
0.0
 11
7.644266582643448
 21
3.705312650999833
 31
0.0
  0
LINE
  5
304
330
1F
100
AcDbEntity
  8
0
100
AcDbLine
 10
7.644266582643448
 20
3.705312650999833
 30
0.0
 11
7.649307982643442
 21
3.655889450999832
 31
0.0
  0
LINE
  5
305
330
1F
100
AcDbEntity
  8
0
100
AcDbLine
 10
7.649307982643442
 20
3.655889450999832
 30
0.0
 11
7.666455782643456
 21
3.615545250999832
 31
0.0
  0
LINE
  5
306
330
1F
100
AcDbEntity
  8
0
100
AcDbLine
 10
7.666455782643456
 20
3.615545250999832
 30
0.0
 11
7.737061382643447
 21
3.558051650999834
 31
0.0
  0
LINE
  5
307
330
1F
100
AcDbEntity
  8
0
100
AcDbLine
 10
7.717896382643455
 20
3.383555250999835
 30
0.0
 11
7.726975182643447
 21
3.437014250999833
 31
0.0
  0
LINE
  5
308
330
1F
100
AcDbEntity
  8
0
100
AcDbLine
 10
7.726975182643447
 20
3.437014250999833
 30
0.0
 11
7.756226382643451
 21
3.477360050999834
 31
0.0
  0
LINE
  5
309
330
1F
100
AcDbEntity
  8
0
100
AcDbLine
 10
7.756226382643451
 20
3.477360050999834
 30
0.0
 11
7.801615182643444
 21
3.503583850999835
 31
0.0
  0
LINE
  5
30A
330
1F
100
AcDbEntity
  8
0
100
AcDbLine
 10
7.801615182643444
 20
3.503583850999835
 30
0.0
 11
7.862131582643444
 21
3.512662850999835
 31
0.0
  0
LINE
  5
30B
330
1F
100
AcDbEntity
  8
0
100
AcDbLine
 10
7.862131582643444
 20
3.512662850999835
 30
0.0
 11
7.921643782643445
 21
3.503583850999835
 31
0.0
  0
LINE
  5
30C
330
1F
100
AcDbEntity
  8
0
100
AcDbLine
 10
7.921643782643445
 20
3.503583850999835
 30
0.0
 11
7.96703258264345
 21
3.477360050999834
 31
0.0
  0
LINE
  5
30D
330
1F
100
AcDbEntity
  8
0
100
AcDbLine
 10
7.96703258264345
 20
3.477360050999834
 30
0.0
 11
7.996280782643453
 21
3.437014250999833
 31
0.0
  0
LINE
  5
30E
330
1F
100
AcDbEntity
  8
0
100
AcDbLine
 10
7.996280782643453
 20
3.437014250999833
 30
0.0
 11
8.006369782643446
 21
3.383555250999835
 31
0.0
  0
LINE
  5
30F
330
1F
100
AcDbEntity
  8
0
100
AcDbLine
 10
8.006369782643446
 20
3.383555250999835
 30
0.0
 11
7.996280782643453
 21
3.32606305099984
 31
0.0
  0
LINE
  5
310
330
1F
100
AcDbEntity
  8
0
100
AcDbLine
 10
7.996280782643453
 20
3.32606305099984
 30
0.0
 11
7.96703258264345
 21
3.282691450999836
 31
0.0
  0
LINE
  5
311
330
1F
100
AcDbEntity
  8
0
100
AcDbLine
 10
7.96703258264345
 20
3.282691450999836
 30
0.0
 11
7.921643782643445
 21
3.254449050999837
 31
0.0
  0
LINE
  5
312
330
1F
100
AcDbEntity
  8
0
100
AcDbLine
 10
7.921643782643445
 20
3.254449050999837
 30
0.0
 11
7.862131582643444
 21
3.245371650999837
 31
0.0
  0
LINE
  5
313
330
1F
100
AcDbEntity
  8
0
100
AcDbLine
 10
7.862131582643444
 20
3.245371650999837
 30
0.0
 11
7.801615182643444
 21
3.254449050999837
 31
0.0
  0
LINE
  5
314
330
1F
100
AcDbEntity
  8
0
100
AcDbLine
 10
7.801615182643444
 20
3.254449050999837
 30
0.0
 11
7.756226382643451
 21
3.282691450999836
 31
0.0
  0
LINE
  5
315
330
1F
100
AcDbEntity
  8
0
100
AcDbLine
 10
7.756226382643451
 20
3.282691450999836
 30
0.0
 11
7.726975182643447
 21
3.32606305099984
 31
0.0
  0
LINE
  5
316
330
1F
100
AcDbEntity
  8
0
100
AcDbLine
 10
7.726975182643447
 20
3.32606305099984
 30
0.0
 11
7.717896382643455
 21
3.383555250999835
 31
0.0
  0
LINE
  5
317
330
1F
100
AcDbEntity
  8
0
100
AcDbLine
 10
7.740085582643446
 20
3.69724385099983
 30
0.0
 11
7.748157582643443
 21
3.741625450999833
 31
0.0
  0
LINE
  5
318
330
1F
100
AcDbEntity
  8
0
100
AcDbLine
 10
7.748157582643443
 20
3.741625450999833
 30
0.0
 11
7.772363982643451
 21
3.775918050999832
 31
0.0
  0
LINE
  5
319
330
1F
100
AcDbEntity
  8
0
100
AcDbLine
 10
7.772363982643451
 20
3.775918050999832
 30
0.0
 11
7.810691182643449
 21
3.797100450999845
 31
0.0
  0
LINE
  5
31A
330
1F
100
AcDbEntity
  8
0
100
AcDbLine
 10
7.810691182643449
 20
3.797100450999845
 30
0.0
 11
7.862131582643444
 21
3.805169250999831
 31
0.0
  0
LINE
  5
31B
330
1F
100
AcDbEntity
  8
0
100
AcDbLine
 10
7.862131582643444
 20
3.805169250999831
 30
0.0
 11
7.912564782643445
 21
3.797100450999845
 31
0.0
  0
LINE
  5
31C
330
1F
100
AcDbEntity
  8
0
100
AcDbLine
 10
7.912564782643445
 20
3.797100450999845
 30
0.0
 11
7.950894982643449
 21
3.775918050999832
 31
0.0
  0
LINE
  5
31D
330
1F
100
AcDbEntity
  8
0
100
AcDbLine
 10
7.950894982643449
 20
3.775918050999832
 30
0.0
 11
7.975101582643449
 21
3.741625450999833
 31
0.0
  0
LINE
  5
31E
330
1F
100
AcDbEntity
  8
0
100
AcDbLine
 10
7.975101582643449
 20
3.741625450999833
 30
0.0
 11
7.984180382643446
 21
3.69724385099983
 31
0.0
  0
LINE
  5
31F
330
1F
100
AcDbEntity
  8
0
100
AcDbLine
 10
7.984180382643446
 20
3.69724385099983
 30
0.0
 11
7.975101582643449
 21
3.651855050999837
 31
0.0
  0
LINE
  5
320
330
1F
100
AcDbEntity
  8
0
100
AcDbLine
 10
7.975101582643449
 20
3.651855050999837
 30
0.0
 11
7.950894982643449
 21
3.616552250999836
 31
0.0
  0
LINE
  5
321
330
1F
100
AcDbEntity
  8
0
100
AcDbLine
 10
7.950894982643449
 20
3.616552250999836
 30
0.0
 11
7.912564782643445
 21
3.593354450999835
 31
0.0
  0
LINE
  5
322
330
1F
100
AcDbEntity
  8
0
100
AcDbLine
 10
7.912564782643445
 20
3.593354450999835
 30
0.0
 11
7.862131582643444
 21
3.586294050999832
 31
0.0
  0
LINE
  5
323
330
1F
100
AcDbEntity
  8
0
100
AcDbLine
 10
7.862131582643444
 20
3.586294050999832
 30
0.0
 11
7.810691182643449
 21
3.594363050999833
 31
0.0
  0
LINE
  5
324
330
1F
100
AcDbEntity
  8
0
100
AcDbLine
 10
7.810691182643449
 20
3.594363050999833
 30
0.0
 11
7.772363982643451
 21
3.616552250999836
 31
0.0
  0
LINE
  5
325
330
1F
100
AcDbEntity
  8
0
100
AcDbLine
 10
7.772363982643451
 20
3.616552250999836
 30
0.0
 11
7.748157582643443
 21
3.651855050999837
 31
0.0
  0
LINE
  5
326
330
1F
100
AcDbEntity
  8
0
100
AcDbLine
 10
7.748157582643443
 20
3.651855050999837
 30
0.0
 11
7.740085582643446
 21
3.69724385099983
 31
0.0
  0
LINE
  5
327
330
1F
100
AcDbEntity
  8
0
100
AcDbLine
 10
3.608255782643449
 20
3.008373650999836
 30
0.0
 11
3.608255782643449
 21
2.780817650999837
 31
0.0
  0
LINE
  5
328
330
1F
100
AcDbEntity
  8
0
100
AcDbLine
 10
5.408255782643457
 20
4.808373650999832
 30
0.0
 11
5.408255782643457
 21
2.780817650999837
 31
0.0
  0
LINE
  5
329
330
1F
100
AcDbEntity
  8
0
100
AcDbLine
 10
3.994626582643451
 20
2.884345650999835
 30
0.0
 11
3.608255782643449
 21
2.780817650999837
 31
0.0
  0
LINE
  5
32A
330
1F
100
AcDbEntity
  8
0
100
AcDbLine
 10
3.608255782643449
 20
2.780817650999837
 30
0.0
 11
3.994626582643451
 21
2.677289850999838
 31
0.0
  0
LINE
  5
32B
330
1F
100
AcDbEntity
  8
0
100
AcDbLine
 10
5.021884982643451
 20
2.677289850999838
 30
0.0
 11
5.408255782643457
 21
2.780817650999837
 31
0.0
  0
LINE
  5
32C
330
1F
100
AcDbEntity
  8
0
100
AcDbLine
 10
5.408255782643457
 20
2.780817650999837
 30
0.0
 11
5.021884982643451
 21
2.884345650999835
 31
0.0
  0
LINE
  5
32D
330
1F
100
AcDbEntity
  8
0
100
AcDbLine
 10
3.608255782643449
 20
2.780817650999837
 30
0.0
 11
5.408255782643457
 21
2.780817650999837
 31
0.0
  0
LINE
  5
32E
330
1F
100
AcDbEntity
  8
0
100
AcDbLine
 10
0.3838721826434492
 20
3.604851850999832
 30
0.0
 11
0.4487769826434448
 21
3.539948650999835
 31
0.0
  0
LINE
  5
32F
330
1F
100
AcDbEntity
  8
0
100
AcDbLine
 10
0.4487769826434448
 20
3.539948650999835
 30
0.0
 11
0.9473183826434615
 21
4.038491450999831
 31
0.0
  0
LINE
  5
330
330
1F
100
AcDbEntity
  8
0
100
AcDbLine
 10
0.9473183826434615
 20
4.038491450999831
 30
0.0
 11
0.8988197826434485
 21
4.086989850999835
 31
0.0
  0
LINE
  5
331
330
1F
100
AcDbEntity
  8
0
100
AcDbLine
 10
0.8988197826434485
 20
4.086989850999835
 30
0.0
 11
0.8424751826434493
 21
4.056319850999834
 31
0.0
  0
LINE
  5
332
330
1F
100
AcDbEntity
  8
0
100
AcDbLine
 10
0.8424751826434493
 20
4.056319850999834
 30
0.0
 11
0.7875557826434435
 21
4.052755250999832
 31
0.0
  0
LINE
  5
333
330
1F
100
AcDbEntity
  8
0
100
AcDbLine
 10
0.7875557826434435
 20
4.052755250999832
 30
0.0
 11
0.7312111826434443
 21
4.074865250999845
 31
0.0
  0
LINE
  5
334
330
1F
100
AcDbEntity
  8
0
100
AcDbLine
 10
0.7312111826434443
 20
4.074865250999845
 30
0.0
 11
0.6713019826434484
 21
4.123363850999835
 31
0.0
  0
LINE
  5
335
330
1F
100
AcDbEntity
  8
0
100
AcDbLine
 10
0.6713019826434484
 20
4.123363850999835
 30
0.0
 11
0.6206641826434468
 21
4.072726050999834
 31
0.0
  0
LINE
  5
336
330
1F
100
AcDbEntity
  8
0
100
AcDbLine
 10
0.6206641826434468
 20
4.072726050999834
 30
0.0
 11
0.7362037826434487
 21
3.957183450999831
 31
0.0
  0
LINE
  5
337
330
1F
100
AcDbEntity
  8
0
100
AcDbLine
 10
0.7362037826434487
 20
3.957183450999831
 30
0.0
 11
0.3838721826434492
 21
3.604851850999832
 31
0.0
  0
LINE
  5
338
330
1F
100
AcDbEntity
  8
0
100
AcDbLine
 10
0.8758521826434462
 20
3.112873450999834
 30
0.0
 11
0.9742775826434493
 21
3.014448050999836
 31
0.0
  0
LINE
  5
339
330
1F
100
AcDbEntity
  8
0
100
AcDbLine
 10
0.9742775826434493
 20
3.014448050999836
 30
0.0
 11
1.080545782643451
 21
3.120718050999836
 31
0.0
  0
LINE
  5
33A
330
1F
100
AcDbEntity
  8
0
100
AcDbLine
 10
1.080545782643451
 20
3.120718050999836
 30
0.0
 11
0.9821235826434469
 21
3.219143250999835
 31
0.0
  0
LINE
  5
33B
330
1F
100
AcDbEntity
  8
0
100
AcDbLine
 10
0.9821235826434469
 20
3.219143250999835
 30
0.0
 11
0.8758521826434462
 21
3.112873450999834
 31
0.0
  0
LINE
  5
33C
330
1F
100
AcDbEntity
  8
0
100
AcDbLine
 10
1.405631182643451
 20
2.841279250999835
 30
0.0
 11
1.362839582643456
 21
2.767103050999834
 31
0.0
  0
LINE
  5
33D
330
1F
100
AcDbEntity
  8
0
100
AcDbLine
 10
1.362839582643456
 20
2.767103050999834
 30
0.0
 11
1.352139982643445
 21
2.686509250999838
 31
0.0
  0
LINE
  5
33E
330
1F
100
AcDbEntity
  8
0
100
AcDbLine
 10
1.352139982643445
 20
2.686509250999838
 30
0.0
 11
1.374964182643446
 21
2.606629450999832
 31
0.0
  0
LINE
  5
33F
330
1F
100
AcDbEntity
  8
0
100
AcDbLine
 10
1.374964182643446
 20
2.606629450999832
 30
0.0
 11
1.42988058264345
 21
2.530314250999835
 31
0.0
  0
LINE
  5
340
330
1F
100
AcDbEntity
  8
0
100
AcDbLine
 10
1.42988058264345
 20
2.530314250999835
 30
0.0
 11
1.514755982643444
 21
2.471117650999833
 31
0.0
  0
LINE
  5
341
330
1F
100
AcDbEntity
  8
0
100
AcDbLine
 10
1.514755982643444
 20
2.471117650999833
 30
0.0
 11
1.60604638264345
 21
2.449720250999836
 31
0.0
  0
LINE
  5
342
330
1F
100
AcDbEntity
  8
0
100
AcDbLine
 10
1.60604638264345
 20
2.449720250999836
 30
0.0
 11
1.697339582643448
 21
2.469691050999838
 31
0.0
  0
LINE
  5
343
330
1F
100
AcDbEntity
  8
0
100
AcDbLine
 10
1.697339582643448
 20
2.469691050999838
 30
0.0
 11
1.78221218264345
 21
2.527462250999832
 31
0.0
  0
LINE
  5
344
330
1F
100
AcDbEntity
  8
0
100
AcDbLine
 10
1.78221218264345
 20
2.527462250999832
 30
0.0
 11
1.836417382643446
 21
2.605916850999833
 31
0.0
  0
LINE
  5
345
330
1F
100
AcDbEntity
  8
0
100
AcDbLine
 10
1.836417382643446
 20
2.605916850999833
 30
0.0
 11
1.854248782643444
 21
2.692216050999836
 31
0.0
  0
LINE
  5
346
330
1F
100
AcDbEntity
  8
0
100
AcDbLine
 10
1.854248782643444
 20
2.692216050999836
 30
0.0
 11
1.834278182643463
 21
2.779229250999834
 31
0.0
  0
LINE
  5
347
330
1F
100
AcDbEntity
  8
0
100
AcDbLine
 10
1.834278182643463
 20
2.779229250999834
 30
0.0
 11
1.777219382643448
 21
2.860535850999838
 31
0.0
  0
LINE
  5
348
330
1F
100
AcDbEntity
  8
0
100
AcDbLine
 10
1.777219382643448
 20
2.860535850999838
 30
0.0
 11
1.715170982643446
 21
2.905468250999838
 31
0.0
  0
LINE
  5
349
330
1F
100
AcDbEntity
  8
0
100
AcDbLine
 10
1.715170982643446
 20
2.905468250999838
 30
0.0
 11
1.650266382643448
 21
2.923299650999836
 31
0.0
  0
LINE
  5
34A
330
1F
100
AcDbEntity
  8
0
100
AcDbLine
 10
1.650266382643448
 20
2.923299650999836
 30
0.0
 11
1.803607982643453
 21
3.036701450999834
 31
0.0
  0
LINE
  5
34B
330
1F
100
AcDbEntity
  8
0
100
AcDbLine
 10
1.803607982643453
 20
3.036701450999834
 30
0.0
 11
2.020429182643449
 21
2.819881850999838
 31
0.0
  0
LINE
  5
34C
330
1F
100
AcDbEntity
  8
0
100
AcDbLine
 10
2.020429182643449
 20
2.819881850999838
 30
0.0
 11
2.078913182643451
 21
2.878365650999831
 31
0.0
  0
LINE
  5
34D
330
1F
100
AcDbEntity
  8
0
100
AcDbLine
 10
2.078913182643451
 20
2.878365650999831
 30
0.0
 11
1.814307382643449
 21
3.142971450999833
 31
0.0
  0
LINE
  5
34E
330
1F
100
AcDbEntity
  8
0
100
AcDbLine
 10
1.814307382643449
 20
3.142971450999833
 30
0.0
 11
1.51261678264345
 21
2.919732250999837
 31
0.0
  0
LINE
  5
34F
330
1F
100
AcDbEntity
  8
0
100
AcDbLine
 10
1.51261678264345
 20
2.919732250999837
 30
0.0
 11
1.56967238264345
 21
2.862675050999832
 31
0.0
  0
LINE
  5
350
330
1F
100
AcDbEntity
  8
0
100
AcDbLine
 10
1.56967238264345
 20
2.862675050999832
 30
0.0
 11
1.644562582643452
 21
2.854830450999836
 31
0.0
  0
LINE
  5
351
330
1F
100
AcDbEntity
  8
0
100
AcDbLine
 10
1.644562582643452
 20
2.854830450999836
 30
0.0
 11
1.709464382643446
 21
2.814176450999836
 31
0.0
  0
LINE
  5
352
330
1F
100
AcDbEntity
  8
0
100
AcDbLine
 10
1.709464382643446
 20
2.814176450999836
 30
0.0
 11
1.747263382643448
 21
2.760685250999836
 31
0.0
  0
LINE
  5
353
330
1F
100
AcDbEntity
  8
0
100
AcDbLine
 10
1.747263382643448
 20
2.760685250999836
 30
0.0
 11
1.759390982643444
 21
2.702914050999836
 31
0.0
  0
LINE
  5
354
330
1F
100
AcDbEntity
  8
0
100
AcDbLine
 10
1.759390982643444
 20
2.702914050999836
 30
0.0
 11
1.746552382643442
 21
2.645856850999837
 31
0.0
  0
LINE
  5
355
330
1F
100
AcDbEntity
  8
0
100
AcDbLine
 10
1.746552382643442
 20
2.645856850999837
 30
0.0
 11
1.709464382643446
 21
2.593078250999837
 31
0.0
  0
LINE
  5
356
330
1F
100
AcDbEntity
  8
0
100
AcDbLine
 10
1.709464382643446
 20
2.593078250999837
 30
0.0
 11
1.656687182643447
 21
2.555990250999835
 31
0.0
  0
LINE
  5
357
330
1F
100
AcDbEntity
  8
0
100
AcDbLine
 10
1.656687182643447
 20
2.555990250999835
 30
0.0
 11
1.598914382643442
 21
2.543865450999836
 31
0.0
  0
LINE
  5
358
330
1F
100
AcDbEntity
  8
0
100
AcDbLine
 10
1.598914382643442
 20
2.543865450999836
 30
0.0
 11
1.54185878264346
 21
2.556704250999836
 31
0.0
  0
LINE
  5
359
330
1F
100
AcDbEntity
  8
0
100
AcDbLine
 10
1.54185878264346
 20
2.556704250999836
 30
0.0
 11
1.48907858264346
 21
2.593790850999836
 31
0.0
  0
LINE
  5
35A
330
1F
100
AcDbEntity
  8
0
100
AcDbLine
 10
1.48907858264346
 20
2.593790850999836
 30
0.0
 11
1.456272182643457
 21
2.636584050999836
 31
0.0
  0
LINE
  5
35B
330
1F
100
AcDbEntity
  8
0
100
AcDbLine
 10
1.456272182643457
 20
2.636584050999836
 30
0.0
 11
1.443433382643451
 21
2.682230650999835
 31
0.0
  0
LINE
  5
35C
330
1F
100
AcDbEntity
  8
0
100
AcDbLine
 10
1.443433382643451
 20
2.682230650999835
 30
0.0
 11
1.447711982643449
 21
2.729302450999832
 31
0.0
  0
LINE
  5
35D
330
1F
100
AcDbEntity
  8
0
100
AcDbLine
 10
1.447711982643449
 20
2.729302450999832
 30
0.0
 11
1.471961182643451
 21
2.774949250999835
 31
0.0
  0
LINE
  5
35E
330
1F
100
AcDbEntity
  8
0
100
AcDbLine
 10
1.471961182643451
 20
2.774949250999835
 30
0.0
 11
1.405631182643451
 21
2.841279250999835
 31
0.0
  0
LINE
  5
35F
330
1F
100
AcDbEntity
  8
0
100
AcDbLine
 10
-1.05245901735655
 20
4.621908050999832
 30
0.0
 11
-1.398867017356554
 21
4.821908050999832
 31
0.0
  0
LINE
  5
360
330
1F
100
AcDbEntity
  8
0
100
AcDbLine
 10
-1.398867017356554
 20
4.821908050999832
 30
0.0
 11
-1.198867017356554
 21
4.475497050999833
 31
0.0
  0
LINE
  5
361
330
1F
100
AcDbEntity
  8
0
100
AcDbLine
 10
-0.6846184173565514
 20
3.961248250999832
 30
0.0
 11
-0.3382072173565541
 21
3.761248250999832
 31
0.0
  0
LINE
  5
362
330
1F
100
AcDbEntity
  8
0
100
AcDbLine
 10
-0.3382072173565541
 20
3.761248250999832
 30
0.0
 11
-0.5382072173565537
 21
4.107659450999835
 31
0.0
  0
LINE
  5
363
330
1F
100
AcDbEntity
  8
0
100
AcDbLine
 10
-1.398867017356554
 20
4.821908050999832
 30
0.0
 11
-0.3382072173565541
 21
3.761248250999832
 31
0.0
  0
LINE
  5
364
330
1F
100
AcDbEntity
  8
0
100
AcDbLine
 10
-13.09174589589638
 20
10.56837445099983
 30
0.0
 11
-13.18985060483105
 21
10.56516283015008
 31
0.0
  0
LINE
  5
365
330
1F
100
AcDbEntity
  8
0
100
AcDbLine
 10
-13.18985060483105
 20
10.56516283015008
 30
0.0
 11
-13.28753521398577
 21
10.55554173052849
 31
0.0
  0
LINE
  5
366
330
1F
100
AcDbEntity
  8
0
100
AcDbLine
 10
-13.28753521398577
 20
10.55554173052849
 30
0.0
 11
-13.38438142284874
 21
10.53955235116251
 31
0.0
  0
LINE
  5
367
330
1F
100
AcDbEntity
  8
0
100
AcDbLine
 10
-13.38438142284874
 20
10.53955235116251
 30
0.0
 11
-13.47997452106708
 21
10.51726316103237
 31
0.0
  0
LINE
  5
368
330
1F
100
AcDbEntity
  8
0
100
AcDbLine
 10
-13.47997452106708
 20
10.51726316103237
 30
0.0
 11
-13.57390516430032
 21
10.48876960587635
 31
0.0
  0
LINE
  5
369
330
1F
100
AcDbEntity
  8
0
100
AcDbLine
 10
-13.57390516430032
 20
10.48876960587635
 30
0.0
 11
-13.66577112709577
 21
10.45419369947746
 31
0.0
  0
LINE
  5
36A
330
1F
100
AcDbEntity
  8
0
100
AcDbLine
 10
-13.66577112709577
 20
10.45419369947746
 30
0.0
 11
-13.75517902527973
 21
10.41368350118166
 31
0.0
  0
LINE
  5
36B
330
1F
100
AcDbEntity
  8
0
100
AcDbLine
 10
-13.75517902527973
 20
10.41368350118166
 30
0.0
 11
-13.84174600048903
 21
10.36741248188501
 31
0.0
  0
LINE
  5
36C
330
1F
100
AcDbEntity
  8
0
100
AcDbLine
 10
-13.84174600048903
 20
10.36741248188501
 30
0.0
 11
-13.92510135962935
 21
10.31557878120458
 31
0.0
  0
LINE
  5
36D
330
1F
100
AcDbEntity
  8
0
100
AcDbLine
 10
-13.92510135962935
 20
10.31557878120458
 30
0.0
 11
-14.00488816224004
 21
10.25840435901421
 31
0.0
  0
LINE
  5
36E
330
1F
100
AcDbEntity
  8
0
100
AcDbLine
 10
-14.00488816224004
 20
10.25840435901421
 30
0.0
 11
-14.08076474896805
 21
10.19613404497819
 31
0.0
  0
LINE
  5
36F
330
1F
100
AcDbEntity
  8
0
100
AcDbLine
 10
-14.08076474896805
 20
10.19613404497819
 30
0.0
 11
-14.15240620460579
 21
10.12903449015295
 31
0.0
  0
LINE
  5
370
330
1F
100
AcDbEntity
  8
0
100
AcDbLine
 10
-14.15240620460579
 20
10.12903449015295
 30
0.0
 11
-14.21950574942799
 21
10.05739302514634
 31
0.0
  0
LINE
  5
371
330
1F
100
AcDbEntity
  8
0
100
AcDbLine
 10
-14.21950574942799
 20
10.05739302514634
 30
0.0
 11
-14.28177605286965
 21
9.981516429723762
 31
0.0
  0
LINE
  5
372
330
1F
100
AcDbEntity
  8
0
100
AcDbLine
 10
-14.28177605286965
 20
9.981516429723762
 30
0.0
 11
-14.33895046391967
 21
9.901729619130018
 31
0.0
  0
LINE
  5
373
330
1F
100
AcDbEntity
  8
0
100
AcDbLine
 10
-14.33895046391967
 20
9.901729619130018
 30
0.0
 11
-14.39078415296149
 21
9.818374252752351
 31
0.0
  0
LINE
  5
374
330
1F
100
AcDbEntity
  8
0
100
AcDbLine
 10
-14.39078415296149
 20
9.818374252752351
 30
0.0
 11
-14.43705516017112
 21
9.731807271082399
 31
0.0
  0
LINE
  5
375
330
1F
100
AcDbEntity
  8
0
100
AcDbLine
 10
-14.43705516017112
 20
9.731807271082399
 30
0.0
 11
-14.47756534598322
 21
9.64239936724214
 31
0.0
  0
LINE
  5
376
330
1F
100
AcDbEntity
  8
0
100
AcDbLine
 10
-14.47756534598322
 20
9.64239936724214
 30
0.0
 11
-14.5121412395552
 21
9.550533399618992
 31
0.0
  0
LINE
  5
377
330
1F
100
AcDbEntity
  8
0
100
AcDbLine
 10
-14.5121412395552
 20
9.550533399618992
 30
0.0
 11
-14.54063478159603
 21
9.456602752407298
 31
0.0
  0
LINE
  5
378
330
1F
100
AcDbEntity
  8
0
100
AcDbLine
 10
-14.54063478159603
 20
9.456602752407298
 30
0.0
 11
-14.56292395837885
 21
9.3610096510768
 31
0.0
  0
LINE
  5
379
330
1F
100
AcDbEntity
  8
0
100
AcDbLine
 10
-14.56292395837885
 20
9.3610096510768
 30
0.0
 11
-14.57891332422255
 21
9.264163439981292
 31
0.0
  0
LINE
  5
37A
330
1F
100
AcDbEntity
  8
0
100
AcDbLine
 10
-14.57891332422255
 20
9.264163439981292
 30
0.0
 11
-14.5885344102048
 21
9.166478829483214
 31
0.0
  0
LINE
  5
37B
330
1F
100
AcDbEntity
  8
0
100
AcDbLine
 10
-14.5885344102048
 20
9.166478829483214
 30
0.0
 11
-14.59174601735655
 21
9.06837412010012
 31
0.0
  0
LINE
  5
37C
330
1F
100
AcDbEntity
  8
0
100
AcDbLine
 10
-14.59174601735655
 20
9.06837412010012
 30
0.0
 11
-14.59174581735655
 21
5.208373650999832
 31
0.0
  0
LINE
  5
37D
330
1F
100
AcDbEntity
  8
0
100
AcDbLine
 10
-14.59174581735655
 20
5.208373650999832
 30
0.0
 11
-12.79174421735655
 21
3.408373650999835
 31
0.0
  0
LINE
  5
37E
330
1F
100
AcDbEntity
  8
0
100
AcDbLine
 10
-12.79174421735655
 20
6.067712050999835
 30
0.0
 11
-12.79174421735655
 21
3.408373650999835
 31
0.0
  0
LINE
  5
37F
330
1F
100
AcDbEntity
  8
0
100
AcDbLine
 10
-11.15174481735655
 20
6.067712050999835
 30
0.0
 11
-8.492404817356553
 21
3.408373650999835
 31
0.0
  0
LINE
  5
380
330
1F
100
AcDbEntity
  8
0
100
AcDbLine
 10
-8.492404817356553
 20
3.408373650999835
 30
0.0
 11
-8.492404817356553
 21
0.768372650999833
 31
0.0
  0
LINE
  5
381
330
1F
100
AcDbEntity
  8
0
100
AcDbLine
 10
-8.492404817356553
 20
0.768372650999833
 30
0.0
 11
-8.292404817356553
 21
0.5683726509998334
 31
0.0
  0
LINE
  5
382
330
1F
100
AcDbEntity
  8
0
100
AcDbLine
 10
-8.492404817356553
 20
0.3683726509998337
 30
0.0
 11
-8.292404817356553
 21
0.5683726509998334
 31
0.0
  0
LINE
  5
383
330
1F
100
AcDbEntity
  8
0
100
AcDbLine
 10
-8.492404817356553
 20
-2.271628149000165
 30
0.0
 11
-8.492404817356553
 21
0.3683726509998337
 31
0.0
  0
LINE
  5
384
330
1F
100
AcDbEntity
  8
0
100
AcDbLine
 10
-11.15174481735655
 20
-4.930968149000162
 30
0.0
 11
-8.492404817356553
 21
-2.271628149000165
 31
0.0
  0
LINE
  5
385
330
1F
100
AcDbEntity
  8
0
100
AcDbLine
 10
-12.79174421735655
 20
-4.930968149000162
 30
0.0
 11
-12.79174421735655
 21
-2.271628149000165
 31
0.0
  0
LINE
  5
386
330
1F
100
AcDbEntity
  8
0
100
AcDbLine
 10
-14.59174581735655
 20
-4.071628149000163
 30
0.0
 11
-12.79174421735655
 21
-2.271628149000165
 31
0.0
  0
LINE
  5
387
330
1F
100
AcDbEntity
  8
0
100
AcDbLine
 10
-14.59174581735655
 20
-7.931628749000165
 30
0.0
 11
-14.59174581735655
 21
-4.071628149000163
 31
0.0
  0
LINE
  5
388
330
1F
100
AcDbEntity
  8
0
100
AcDbLine
 10
-14.59174581735655
 20
-7.931628749000165
 30
0.0
 11
-14.58824916236462
 21
-8.033992504205367
 31
0.0
  0
LINE
  5
389
330
1F
100
AcDbEntity
  8
0
100
AcDbLine
 10
-14.58824916236462
 20
-8.033992504205367
 30
0.0
 11
-14.57777491920394
 21
-8.135878861515861
 31
0.0
  0
LINE
  5
38A
330
1F
100
AcDbEntity
  8
0
100
AcDbLine
 10
-14.57777491920394
 20
-8.135878861515861
 30
0.0
 11
-14.56037212362257
 21
-8.236812910685325
 31
0.0
  0
LINE
  5
38B
330
1F
100
AcDbEntity
  8
0
100
AcDbLine
 10
-14.56037212362257
 20
-8.236812910685325
 30
0.0
 11
-14.53612191547253
 21
-8.33632405066709
 31
0.0
  0
LINE
  5
38C
330
1F
100
AcDbEntity
  8
0
100
AcDbLine
 10
-14.53612191547253
 20
-8.33632405066709
 30
0.0
 11
-14.5051373603985
 21
-8.43394831467279
 31
0.0
  0
LINE
  5
38D
330
1F
100
AcDbEntity
  8
0
100
AcDbLine
 10
-14.5051373603985
 20
-8.43394831467279
 30
0.0
 11
-14.4675629226736
 21
-8.52923053339931
 31
0.0
  0
LINE
  5
38E
330
1F
100
AcDbEntity
  8
0
100
AcDbLine
 10
-14.4675629226736
 20
-8.52923053339931
 30
0.0
 11
-14.42357379164046
 21
-8.621726457237822
 31
0.0
  0
LINE
  5
38F
330
1F
100
AcDbEntity
  8
0
100
AcDbLine
 10
-14.42357379164046
 20
-8.621726457237822
 30
0.0
 11
-14.3733750648977
 21
-8.711004827570154
 31
0.0
  0
LINE
  5
390
330
1F
100
AcDbEntity
  8
0
100
AcDbLine
 10
-14.3733750648977
 20
-8.711004827570154
 30
0.0
 11
-14.31720079204051
 21
-8.796649387495208
 31
0.0
  0
LINE
  5
391
330
1F
100
AcDbEntity
  8
0
100
AcDbLine
 10
-14.31720079204051
 20
-8.796649387495208
 30
0.0
 11
-14.2553128834135
 21
-8.878260822610425
 31
0.0
  0
LINE
  5
392
330
1F
100
AcDbEntity
  8
0
100
AcDbLine
 10
-14.2553128834135
 20
-8.878260822610425
 30
0.0
 11
-14.18799988896404
 21
-8.955458622799538
 31
0.0
  0
LINE
  5
393
330
1F
100
AcDbEntity
  8
0
100
AcDbLine
 10
-14.18799988896404
 20
-8.955458622799538
 30
0.0
 11
-14.11557565288944
 21
-9.027882856346057
 31
0.0
  0
LINE
  5
394
330
1F
100
AcDbEntity
  8
0
100
AcDbLine
 10
-14.11557565288944
 20
-9.027882856346057
 30
0.0
 11
-14.03837785035066
 21
-9.095195848100804
 31
0.0
  0
LINE
  5
395
330
1F
100
AcDbEntity
  8
0
100
AcDbLine
 10
-14.03837785035066
 20
-9.095195848100804
 30
0.0
 11
-13.95676641307515
 21
-9.15708375387904
 31
0.0
  0
LINE
  5
396
330
1F
100
AcDbEntity
  8
0
100
AcDbLine
 10
-13.95676641307515
 20
-9.15708375387904
 30
0.0
 11
-13.87112185118924
 21
-9.213258023746675
 31
0.0
  0
LINE
  5
397
330
1F
100
AcDbEntity
  8
0
100
AcDbLine
 10
-13.87112185118924
 20
-9.213258023746675
 30
0.0
 11
-13.78184347910464
 21
-9.263456747373024
 31
0.0
  0
LINE
  5
398
330
1F
100
AcDbEntity
  8
0
100
AcDbLine
 10
-13.78184347910464
 20
-9.263456747373024
 30
0.0
 11
-13.68934755373062
 21
-9.307445875177454
 31
0.0
  0
LINE
  5
399
330
1F
100
AcDbEntity
  8
0
100
AcDbLine
 10
-13.68934755373062
 20
-9.307445875177454
 30
0.0
 11
-13.59406533369251
 21
-9.345020309576373
 31
0.0
  0
LINE
  5
39A
330
1F
100
AcDbEntity
  8
0
100
AcDbLine
 10
-13.59406533369251
 20
-9.345020309576373
 30
0.0
 11
-13.49644106860524
 21
-9.376004861242677
 31
0.0
  0
LINE
  5
39B
330
1F
100
AcDbEntity
  8
0
100
AcDbLine
 10
-13.49644106860524
 20
-9.376004861242677
 30
0.0
 11
-13.39692992777699
 21
-9.400255065919119
 31
0.0
  0
LINE
  5
39C
330
1F
100
AcDbEntity
  8
0
100
AcDbLine
 10
-13.39692992777699
 20
-9.400255065919119
 30
0.0
 11
-13.29599587800005
 21
-9.41765785797723
 31
0.0
  0
LINE
  5
39D
330
1F
100
AcDbEntity
  8
0
100
AcDbLine
 10
-13.29599587800005
 20
-9.41765785797723
 30
0.0
 11
-13.19410952032394
 21
-9.428132097581399
 31
0.0
  0
LINE
  5
39E
330
1F
100
AcDbEntity
  8
0
100
AcDbLine
 10
-13.19410952032394
 20
-9.428132097581399
 30
0.0
 11
-13.09174589589638
 21
-9.431628949000164
 31
0.0
  0
LINE
  5
39F
330
1F
100
AcDbEntity
  8
0
100
AcDbLine
 10
-13.09174589589638
 20
-9.431628949000164
 30
0.0
 11
-9.23174521735655
 21
-9.431628149000163
 31
0.0
  0
LINE
  5
3A0
330
1F
100
AcDbEntity
  8
0
100
AcDbLine
 10
-9.23174521735655
 20
-9.431628149000163
 30
0.0
 11
-7.431745217356552
 21
-7.631627349000165
 31
0.0
  0
LINE
  5
3A1
330
1F
100
AcDbEntity
  8
0
100
AcDbLine
 10
-7.431745217356552
 20
-7.631627349000165
 30
0.0
 11
-10.09108501735655
 21
-7.631627349000165
 31
0.0
  0
LINE
  5
3A2
330
1F
100
AcDbEntity
  8
0
100
AcDbLine
 10
-10.09108501735655
 20
-5.991627949000162
 30
0.0
 11
-7.431745217356552
 21
-3.332287949000166
 31
0.0
  0
LINE
  5
3A3
330
1F
100
AcDbEntity
  8
0
100
AcDbLine
 10
-4.791744217356552
 20
-3.332287949000166
 30
0.0
 11
-7.431745217356552
 21
-3.332287949000166
 31
0.0
  0
LINE
  5
3A4
330
1F
100
AcDbEntity
  8
0
100
AcDbLine
 10
-4.791744217356552
 20
-3.332287949000166
 30
0.0
 11
-4.591744217356541
 21
-3.132287949000164
 31
0.0
  0
LINE
  5
3A5
330
1F
100
AcDbEntity
  8
0
100
AcDbLine
 10
-4.391744217356552
 20
-3.332287949000166
 30
0.0
 11
-4.591744217356541
 21
-3.132287949000164
 31
0.0
  0
LINE
  5
3A6
330
1F
100
AcDbEntity
  8
0
100
AcDbLine
 10
-4.391744217356552
 20
-3.332287949000166
 30
0.0
 11
-1.75174481735655
 21
-3.332287949000166
 31
0.0
  0
LINE
  5
3A7
330
1F
100
AcDbEntity
  8
0
100
AcDbLine
 10
0.9075965826434449
 20
-5.991627949000162
 30
0.0
 11
-1.75174481735655
 21
-3.332287949000166
 31
0.0
  0
LINE
  5
3A8
330
1F
100
AcDbEntity
  8
0
100
AcDbLine
 10
-1.75174481735655
 20
-7.631627349000165
 30
0.0
 11
0.9075965826434449
 21
-7.631627349000165
 31
0.0
  0
LINE
  5
3A9
330
1F
100
AcDbEntity
  8
0
100
AcDbLine
 10
0.0482551826434469
 20
-9.431628149000163
 30
0.0
 11
-1.75174481735655
 21
-7.631627349000165
 31
0.0
  0
LINE
  5
3AA
330
1F
100
AcDbEntity
  8
0
100
AcDbLine
 10
3.90825578264346
 20
-9.431628149000163
 30
0.0
 11
0.0482551826434469
 21
-9.431628149000163
 31
0.0
  0
LINE
  5
3AB
330
1F
100
AcDbEntity
  8
0
100
AcDbLine
 10
3.90825578264346
 20
-9.431628149000163
 30
0.0
 11
4.006360414463116
 21
-9.428417338352572
 31
0.0
  0
LINE
  5
3AC
330
1F
100
AcDbEntity
  8
0
100
AcDbLine
 10
4.006360414463116
 20
-9.428417338352572
 30
0.0
 11
4.104045025699857
 21
-9.418796248747064
 31
0.0
  0
LINE
  5
3AD
330
1F
100
AcDbEntity
  8
0
100
AcDbLine
 10
4.104045025699857
 20
-9.418796248747064
 30
0.0
 11
4.200891237283845
 21
-9.40280687916913
 31
0.0
  0
LINE
  5
3AE
330
1F
100
AcDbEntity
  8
0
100
AcDbLine
 10
4.200891237283845
 20
-9.40280687916913
 30
0.0
 11
4.296484338841345
 21
-9.380517698558602
 31
0.0
  0
LINE
  5
3AF
330
1F
100
AcDbEntity
  8
0
100
AcDbLine
 10
4.296484338841345
 20
-9.380517698558602
 30
0.0
 11
4.390414986008477
 21
-9.352024152615106
 31
0.0
  0
LINE
  5
3B0
330
1F
100
AcDbEntity
  8
0
100
AcDbLine
 10
4.390414986008477
 20
-9.352024152615106
 30
0.0
 11
4.482280953306777
 21
-9.31744825508492
 31
0.0
  0
LINE
  5
3B1
330
1F
100
AcDbEntity
  8
0
100
AcDbLine
 10
4.482280953306777
 20
-9.31744825508492
 30
0.0
 11
4.571688856534533
 21
-9.276938065279316
 31
0.0
  0
LINE
  5
3B2
330
1F
100
AcDbEntity
  8
0
100
AcDbLine
 10
4.571688856534533
 20
-9.276938065279316
 30
0.0
 11
4.65825583729847
 21
-9.230667054061847
 31
0.0
  0
LINE
  5
3B3
330
1F
100
AcDbEntity
  8
0
100
AcDbLine
 10
4.65825583729847
 20
-9.230667054061847
 30
0.0
 11
4.741611202472236
 21
-9.178833361019398
 31
0.0
  0
LINE
  5
3B4
330
1F
100
AcDbEntity
  8
0
100
AcDbLine
 10
4.741611202472236
 20
-9.178833361019398
 30
0.0
 11
4.821398011561421
 21
-9.12165894599803
 31
0.0
  0
LINE
  5
3B5
330
1F
100
AcDbEntity
  8
0
100
AcDbLine
 10
4.821398011561421
 20
-9.12165894599803
 30
0.0
 11
4.897274605177649
 21
-9.059388638636749
 31
0.0
  0
LINE
  5
3B6
330
1F
100
AcDbEntity
  8
0
100
AcDbLine
 10
4.897274605177649
 20
-9.059388638636749
 30
0.0
 11
4.968916068076613
 21
-8.992289089969367
 31
0.0
  0
LINE
  5
3B7
330
1F
100
AcDbEntity
  8
0
100
AcDbLine
 10
4.968916068076613
 20
-8.992289089969367
 30
0.0
 11
5.03601562049514
 21
-8.920647630583728
 31
0.0
  0
LINE
  5
3B8
330
1F
100
AcDbEntity
  8
0
100
AcDbLine
 10
5.03601562049514
 20
-8.920647630583728
 30
0.0
 11
5.098285931829306
 21
-8.844771040227965
 31
0.0
  0
LINE
  5
3B9
330
1F
100
AcDbEntity
  8
0
100
AcDbLine
 10
5.098285931829306
 20
-8.844771040227965
 30
0.0
 11
5.155460351028303
 21
-8.764984234132422
 31
0.0
  0
LINE
  5
3BA
330
1F
100
AcDbEntity
  8
0
100
AcDbLine
 10
5.155460351028303
 20
-8.764984234132422
 30
0.0
 11
5.207294048435225
 21
-8.681628871672663
 31
0.0
  0
LINE
  5
3BB
330
1F
100
AcDbEntity
  8
0
100
AcDbLine
 10
5.207294048435225
 20
-8.681628871672663
 30
0.0
 11
5.253565064185335
 21
-8.595061893331474
 31
0.0
  0
LINE
  5
3BC
330
1F
100
AcDbEntity
  8
0
100
AcDbLine
 10
5.253565064185335
 20
-8.595061893331474
 30
0.0
 11
5.294075258672321
 21
-8.505653992224824
 31
0.0
  0
LINE
  5
3BD
330
1F
100
AcDbEntity
  8
0
100
AcDbLine
 10
5.294075258672321
 20
-8.505653992224824
 30
0.0
 11
5.3286511610126
 21
-8.413788026736912
 31
0.0
  0
LINE
  5
3BE
330
1F
100
AcDbEntity
  8
0
100
AcDbLine
 10
5.3286511610126
 20
-8.413788026736912
 30
0.0
 11
5.357144711874292
 21
-8.319857381061698
 31
0.0
  0
LINE
  5
3BF
330
1F
100
AcDbEntity
  8
0
100
AcDbLine
 10
5.357144711874292
 20
-8.319857381061698
 30
0.0
 11
5.379433897490066
 21
-8.224264280671262
 31
0.0
  0
LINE
  5
3C0
330
1F
100
AcDbEntity
  8
0
100
AcDbLine
 10
5.379433897490066
 20
-8.224264280671262
 30
0.0
 11
5.395423272138856
 21
-8.127418069924477
 31
0.0
  0
LINE
  5
3C1
330
1F
100
AcDbEntity
  8
0
100
AcDbLine
 10
5.395423272138856
 20
-8.127418069924477
 30
0.0
 11
5.405044366859118
 21
-8.029733459191496
 31
0.0
  0
LINE
  5
3C2
330
1F
100
AcDbEntity
  8
0
100
AcDbLine
 10
5.405044366859118
 20
-8.029733459191496
 30
0.0
 11
5.408255982643461
 21
-7.931628749000168
 31
0.0
  0
LINE
  5
3C3
330
1F
100
AcDbEntity
  8
0
100
AcDbLine
 10
5.408255982643461
 20
-7.931628749000168
 30
0.0
 11
5.408255782643457
 21
-4.071628149000163
 31
0.0
  0
LINE
  5
3C4
330
1F
100
AcDbEntity
  8
0
100
AcDbLine
 10
5.408255782643457
 20
-4.071628149000163
 30
0.0
 11
3.608255782643449
 21
-2.271628149000165
 31
0.0
  0
LINE
  5
3C5
330
1F
100
AcDbEntity
  8
0
100
AcDbLine
 10
3.608255782643449
 20
-4.930968149000162
 30
0.0
 11
3.608255782643449
 21
-2.271628149000165
 31
0.0
  0
LINE
  5
3C6
330
1F
100
AcDbEntity
  8
0
100
AcDbLine
 10
1.968256382643445
 20
-4.930968149000162
 30
0.0
 11
-0.6910850173565499
 21
-2.271628149000165
 31
0.0
  0
LINE
  5
3C7
330
1F
100
AcDbEntity
  8
0
100
AcDbLine
 10
-0.6910850173565499
 20
-2.271628149000165
 30
0.0
 11
-0.6910850173565499
 21
0.3683726509998337
 31
0.0
  0
LINE
  5
3C8
330
1F
100
AcDbEntity
  8
0
100
AcDbLine
 10
-0.6910850173565499
 20
0.3683726509998337
 30
0.0
 11
-0.8910850173565552
 21
0.5683726509998334
 31
0.0
  0
LINE
  5
3C9
330
1F
100
AcDbEntity
  8
0
100
AcDbLine
 10
-0.6910850173565499
 20
0.768372650999833
 30
0.0
 11
-0.8910850173565552
 21
0.5683726509998334
 31
0.0
  0
LINE
  5
3CA
330
1F
100
AcDbEntity
  8
0
100
AcDbLine
 10
-0.6910850173565499
 20
3.408373650999835
 30
0.0
 11
-0.6910850173565499
 21
0.768372650999833
 31
0.0
  0
LINE
  5
3CB
330
1F
100
AcDbEntity
  8
0
100
AcDbLine
 10
1.968256382643445
 20
6.067712050999835
 30
0.0
 11
-0.3382072173565541
 21
3.761248250999832
 31
0.0
  0
LINE
  5
3CC
330
1F
100
AcDbEntity
  8
0
100
AcDbLine
 10
3.608255782643449
 20
6.067712050999835
 30
0.0
 11
3.608255782643449
 21
3.408373650999835
 31
0.0
  0
LINE
  5
3CD
330
1F
100
AcDbEntity
  8
0
100
AcDbLine
 10
5.408255782643457
 20
5.208373650999832
 30
0.0
 11
3.608255782643449
 21
3.408373650999835
 31
0.0
  0
LINE
  5
3CE
330
1F
100
AcDbEntity
  8
0
100
AcDbLine
 10
5.408255782643457
 20
9.068374250999835
 30
0.0
 11
5.408255782643457
 21
5.208373650999832
 31
0.0
  0
LINE
  5
3CF
330
1F
100
AcDbEntity
  8
0
100
AcDbLine
 10
5.408255782643457
 20
9.068374250999835
 30
0.0
 11
5.405044366859118
 21
9.166478961191158
 31
0.0
  0
LINE
  5
3D0
330
1F
100
AcDbEntity
  8
0
100
AcDbLine
 10
5.405044366859118
 20
9.166478961191158
 30
0.0
 11
5.395423272138856
 21
9.26416357192414
 31
0.0
  0
LINE
  5
3D1
330
1F
100
AcDbEntity
  8
0
100
AcDbLine
 10
5.395423272138856
 20
9.26416357192414
 30
0.0
 11
5.379433897490066
 21
9.36100978267093
 31
0.0
  0
LINE
  5
3D2
330
1F
100
AcDbEntity
  8
0
100
AcDbLine
 10
5.379433897490066
 20
9.36100978267093
 30
0.0
 11
5.357144711874292
 21
9.456602883061365
 31
0.0
  0
LINE
  5
3D3
330
1F
100
AcDbEntity
  8
0
100
AcDbLine
 10
5.357144711874292
 20
9.456602883061365
 30
0.0
 11
5.3286511610126
 21
9.550533528736578
 31
0.0
  0
LINE
  5
3D4
330
1F
100
AcDbEntity
  8
0
100
AcDbLine
 10
5.3286511610126
 20
9.550533528736578
 30
0.0
 11
5.294075258672327
 21
9.642399494224492
 31
0.0
  0
LINE
  5
3D5
330
1F
100
AcDbEntity
  8
0
100
AcDbLine
 10
5.294075258672327
 20
9.642399494224492
 30
0.0
 11
5.253565064185335
 21
9.731807395331144
 31
0.0
  0
LINE
  5
3D6
330
1F
100
AcDbEntity
  8
0
100
AcDbLine
 10
5.253565064185335
 20
9.731807395331144
 30
0.0
 11
5.20729404843523
 21
9.818374373672329
 31
0.0
  0
LINE
  5
3D7
330
1F
100
AcDbEntity
  8
0
100
AcDbLine
 10
5.20729404843523
 20
9.818374373672329
 30
0.0
 11
5.155460351028303
 21
9.901729736132092
 31
0.0
  0
LINE
  5
3D8
330
1F
100
AcDbEntity
  8
0
100
AcDbLine
 10
5.155460351028303
 20
9.901729736132092
 30
0.0
 11
5.098285931829306
 21
9.981516542227633
 31
0.0
  0
LINE
  5
3D9
330
1F
100
AcDbEntity
  8
0
100
AcDbLine
 10
5.098285931829306
 20
9.981516542227633
 30
0.0
 11
5.03601562049514
 21
10.05739313258339
 31
0.0
  0
LINE
  5
3DA
330
1F
100
AcDbEntity
  8
0
100
AcDbLine
 10
5.03601562049514
 20
10.05739313258339
 30
0.0
 11
4.968916068076613
 21
10.12903459196903
 31
0.0
  0
LINE
  5
3DB
330
1F
100
AcDbEntity
  8
0
100
AcDbLine
 10
4.968916068076613
 20
10.12903459196903
 30
0.0
 11
4.897274605177649
 21
10.19613414063642
 31
0.0
  0
LINE
  5
3DC
330
1F
100
AcDbEntity
  8
0
100
AcDbLine
 10
4.897274605177649
 20
10.19613414063642
 30
0.0
 11
4.821398011561421
 21
10.2584044479977
 31
0.0
  0
LINE
  5
3DD
330
1F
100
AcDbEntity
  8
0
100
AcDbLine
 10
4.821398011561421
 20
10.2584044479977
 30
0.0
 11
4.741611202472236
 21
10.31557886301907
 31
0.0
  0
LINE
  5
3DE
330
1F
100
AcDbEntity
  8
0
100
AcDbLine
 10
4.741611202472236
 20
10.31557886301907
 30
0.0
 11
4.65825583729847
 21
10.36741255606151
 31
0.0
  0
LINE
  5
3DF
330
1F
100
AcDbEntity
  8
0
100
AcDbLine
 10
4.65825583729847
 20
10.36741255606151
 30
0.0
 11
4.571688856534539
 21
10.41368356727899
 31
0.0
  0
LINE
  5
3E0
330
1F
100
AcDbEntity
  8
0
100
AcDbLine
 10
4.571688856534539
 20
10.41368356727899
 30
0.0
 11
4.482280953306777
 21
10.45419375708459
 31
0.0
  0
LINE
  5
3E1
330
1F
100
AcDbEntity
  8
0
100
AcDbLine
 10
4.482280953306777
 20
10.45419375708459
 30
0.0
 11
4.390414986008477
 21
10.48876965461477
 31
0.0
  0
LINE
  5
3E2
330
1F
100
AcDbEntity
  8
0
100
AcDbLine
 10
4.390414986008477
 20
10.48876965461477
 30
0.0
 11
4.296484338841345
 21
10.51726320055827
 31
0.0
  0
LINE
  5
3E3
330
1F
100
AcDbEntity
  8
0
100
AcDbLine
 10
4.296484338841345
 20
10.51726320055827
 30
0.0
 11
4.200891237283851
 21
10.5395523811688
 31
0.0
  0
LINE
  5
3E4
330
1F
100
AcDbEntity
  8
0
100
AcDbLine
 10
4.200891237283851
 20
10.5395523811688
 30
0.0
 11
4.104045025699862
 21
10.55554175074673
 31
0.0
  0
LINE
  5
3E5
330
1F
100
AcDbEntity
  8
0
100
AcDbLine
 10
4.104045025699862
 20
10.55554175074673
 30
0.0
 11
4.006360414463116
 21
10.56516284035224
 31
0.0
  0
LINE
  5
3E6
330
1F
100
AcDbEntity
  8
0
100
AcDbLine
 10
4.006360414463116
 20
10.56516284035224
 30
0.0
 11
3.908255704103632
 21
10.56837445099984
 31
0.0
  0
LINE
  5
3E7
330
1F
100
AcDbEntity
  8
0
100
AcDbLine
 10
3.908255704103632
 20
10.56837445099984
 30
0.0
 11
0.0482551826434469
 21
10.56837425099984
 31
0.0
  0
LINE
  5
3E8
330
1F
100
AcDbEntity
  8
0
100
AcDbLine
 10
0.0482551826434469
 20
10.56837425099984
 30
0.0
 11
-1.75174481735655
 21
8.768374250999834
 31
0.0
  0
LINE
  5
3E9
330
1F
100
AcDbEntity
  8
0
100
AcDbLine
 10
-1.75174481735655
 20
8.768374250999834
 30
0.0
 11
0.9075965826434449
 21
8.768374250999834
 31
0.0
  0
LINE
  5
3EA
330
1F
100
AcDbEntity
  8
0
100
AcDbLine
 10
0.9075965826434449
 20
7.128371850999835
 30
0.0
 11
-1.398867017356554
 21
4.821908050999832
 31
0.0
  0
LINE
  5
3EB
330
1F
100
AcDbEntity
  8
0
100
AcDbLine
 10
-4.391744217356552
 20
4.469033450999835
 30
0.0
 11
-1.75174481735655
 21
4.469033450999835
 31
0.0
  0
LINE
  5
3EC
330
1F
100
AcDbEntity
  8
0
100
AcDbLine
 10
-4.391744217356552
 20
4.469033450999835
 30
0.0
 11
-4.591744217356541
 21
4.26903345099983
 31
0.0
  0
LINE
  5
3ED
330
1F
100
AcDbEntity
  8
0
100
AcDbLine
 10
-4.791744217356552
 20
4.469033450999835
 30
0.0
 11
-4.591744217356541
 21
4.26903345099983
 31
0.0
  0
LINE
  5
3EE
330
1F
100
AcDbEntity
  8
0
100
AcDbLine
 10
-4.791744217356552
 20
4.469033450999835
 30
0.0
 11
-7.431745217356552
 21
4.469033450999835
 31
0.0
  0
LINE
  5
3EF
330
1F
100
AcDbEntity
  8
0
100
AcDbLine
 10
-10.09108501735655
 20
7.128371850999835
 30
0.0
 11
-7.431745217356552
 21
4.469033450999835
 31
0.0
  0
LINE
  5
3F0
330
1F
100
AcDbEntity
  8
0
100
AcDbLine
 10
-7.431745217356552
 20
8.768374250999834
 30
0.0
 11
-9.691085017356551
 21
8.768374250999834
 31
0.0
  0
LINE
  5
3F1
330
1F
100
AcDbEntity
  8
0
100
AcDbLine
 10
-9.23174521735655
 20
10.56837425099984
 30
0.0
 11
-7.431745217356552
 21
8.768374250999834
 31
0.0
  0
LINE
  5
3F2
330
1F
100
AcDbEntity
  8
0
100
AcDbLine
 10
-13.09174589589638
 20
10.56837445099983
 30
0.0
 11
-9.23174521735655
 21
10.56837425099984
 31
0.0
  0
LINE
  5
3F3
330
1F
100
AcDbEntity
  8
0
100
AcDbLine
 10
-2.491744017356541
 20
0.5683726509998334
 30
0.0
 11
-2.496240278983687
 21
0.7057192354637617
 31
0.0
  0
LINE
  5
3F4
330
1F
100
AcDbEntity
  8
0
100
AcDbLine
 10
-2.496240278983687
 20
0.7057192354637617
 30
0.0
 11
-2.509709810182566
 21
0.8424776807671827
 31
0.0
  0
LINE
  5
3F5
330
1F
100
AcDbEntity
  8
0
100
AcDbLine
 10
-2.509709810182566
 20
0.8424776807671827
 30
0.0
 11
-2.532094932352701
 21
0.9780623662517677
 31
0.0
  0
LINE
  5
3F6
330
1F
100
AcDbEntity
  8
0
100
AcDbLine
 10
-2.532094932352701
 20
0.9780623662517677
 30
0.0
 11
-2.563299788964332
 21
1.111892697478939
 31
0.0
  0
LINE
  5
3F7
330
1F
100
AcDbEntity
  8
0
100
AcDbLine
 10
-2.563299788964332
 20
1.111892697478939
 30
0.0
 11
-2.603190756030796
 21
1.243395592424364
 31
0.0
  0
LINE
  5
3F8
330
1F
100
AcDbEntity
  8
0
100
AcDbLine
 10
-2.603190756030796
 20
1.243395592424364
 30
0.0
 11
-2.651597014306931
 21
1.372007935503208
 31
0.0
  0
LINE
  5
3F9
330
1F
100
AcDbEntity
  8
0
100
AcDbLine
 10
-2.651597014306931
 20
1.372007935503208
 30
0.0
 11
-2.708311280763346
 21
1.497178988917477
 31
0.0
  0
LINE
  5
3FA
330
1F
100
AcDbEntity
  8
0
100
AcDbLine
 10
-2.708311280763346
 20
1.497178988917477
 30
0.0
 11
-2.77309069620414
 21
1.618372750999836
 31
0.0
  0
LINE
  5
3FB
330
1F
100
AcDbEntity
  8
0
100
AcDbLine
 10
-2.77309069620414
 20
1.618372750999836
 30
0.0
 11
-2.837126817356555
 21
1.722202650999834
 31
0.0
  0
LINE
  5
3FC
330
1F
100
AcDbEntity
  8
0
100
AcDbLine
 10
-2.837126817356555
 20
1.722202650999834
 30
0.0
 11
-2.92570204407428
 21
1.846771773670433
 31
0.0
  0
LINE
  5
3FD
330
1F
100
AcDbEntity
  8
0
100
AcDbLine
 10
-2.92570204407428
 20
1.846771773670433
 30
0.0
 11
-3.01288047128273
 21
1.952998994579143
 31
0.0
  0
LINE
  5
3FE
330
1F
100
AcDbEntity
  8
0
100
AcDbLine
 10
-3.01288047128273
 20
1.952998994579143
 30
0.0
 11
-3.106819835443438
 21
2.053297032912942
 31
0.0
  0
LINE
  5
3FF
330
1F
100
AcDbEntity
  8
0
100
AcDbLine
 10
-3.106819835443438
 20
2.053297032912942
 30
0.0
 11
-3.207117873777232
 21
2.14723639707365
 31
0.0
  0
LINE
  5
400
330
1F
100
AcDbEntity
  8
0
100
AcDbLine
 10
-3.207117873777232
 20
2.14723639707365
 30
0.0
 11
-3.313345094685941
 21
2.234414824282094
 31
0.0
  0
LINE
  5
401
330
1F
100
AcDbEntity
  8
0
100
AcDbLine
 10
-3.313345094685941
 20
2.234414824282094
 30
0.0
 11
-3.42504661690133
 21
2.314459003129099
 31
0.0
  0
LINE
  5
402
330
1F
100
AcDbEntity
  8
0
100
AcDbLine
 10
-3.42504661690133
 20
2.314459003129099
 30
0.0
 11
-3.541744117356544
 21
2.387026172152234
 31
0.0
  0
LINE
  5
403
330
1F
100
AcDbEntity
  8
0
100
AcDbLine
 10
-3.541744117356544
 20
2.387026172152234
 30
0.0
 11
-3.662937879438898
 21
2.451805587593028
 31
0.0
  0
LINE
  5
404
330
1F
100
AcDbEntity
  8
0
100
AcDbLine
 10
-3.662937879438898
 20
2.451805587593028
 30
0.0
 11
-3.788108932853167
 21
2.508519854049444
 31
0.0
  0
LINE
  5
405
330
1F
100
AcDbEntity
  8
0
100
AcDbLine
 10
-3.788108932853167
 20
2.508519854049444
 30
0.0
 11
-3.91672127593201
 21
2.556926112325584
 31
0.0
  0
LINE
  5
406
330
1F
100
AcDbEntity
  8
0
100
AcDbLine
 10
-3.91672127593201
 20
2.556926112325584
 30
0.0
 11
-4.048224170877435
 21
2.596817079392042
 31
0.0
  0
LINE
  5
407
330
1F
100
AcDbEntity
  8
0
100
AcDbLine
 10
-4.048224170877435
 20
2.596817079392042
 30
0.0
 11
-4.182054502104607
 21
2.628021936003674
 31
0.0
  0
LINE
  5
408
330
1F
100
AcDbEntity
  8
0
100
AcDbLine
 10
-4.182054502104607
 20
2.628021936003674
 30
0.0
 11
-4.317639187589192
 21
2.650407058173808
 31
0.0
  0
LINE
  5
409
330
1F
100
AcDbEntity
  8
0
100
AcDbLine
 10
-4.317639187589192
 20
2.650407058173808
 30
0.0
 11
-4.454397632892613
 21
2.663876589372688
 31
0.0
  0
LINE
  5
40A
330
1F
100
AcDbEntity
  8
0
100
AcDbLine
 10
-4.454397632892613
 20
2.663876589372688
 30
0.0
 11
-4.591744217356541
 21
2.668372850999833
 31
0.0
  0
LINE
  5
40B
330
1F
100
AcDbEntity
  8
0
100
AcDbLine
 10
-4.591744217356541
 20
2.668372850999833
 30
0.0
 11
-4.729090801820464
 21
2.663876589372688
 31
0.0
  0
LINE
  5
40C
330
1F
100
AcDbEntity
  8
0
100
AcDbLine
 10
-4.729090801820464
 20
2.663876589372688
 30
0.0
 11
-4.865849247123885
 21
2.650407058173808
 31
0.0
  0
LINE
  5
40D
330
1F
100
AcDbEntity
  8
0
100
AcDbLine
 10
-4.865849247123885
 20
2.650407058173808
 30
0.0
 11
-5.001433932608475
 21
2.628021936003674
 31
0.0
  0
LINE
  5
40E
330
1F
100
AcDbEntity
  8
0
100
AcDbLine
 10
-5.001433932608475
 20
2.628021936003674
 30
0.0
 11
-5.135264263835641
 21
2.596817079392042
 31
0.0
  0
LINE
  5
40F
330
1F
100
AcDbEntity
  8
0
100
AcDbLine
 10
-5.135264263835641
 20
2.596817079392042
 30
0.0
 11
-5.266767158781072
 21
2.556926112325584
 31
0.0
  0
LINE
  5
410
330
1F
100
AcDbEntity
  8
0
100
AcDbLine
 10
-5.266767158781072
 20
2.556926112325584
 30
0.0
 11
-5.395379501859916
 21
2.508519854049444
 31
0.0
  0
LINE
  5
411
330
1F
100
AcDbEntity
  8
0
100
AcDbLine
 10
-5.395379501859916
 20
2.508519854049444
 30
0.0
 11
-5.520550555274179
 21
2.451805587593028
 31
0.0
  0
LINE
  5
412
330
1F
100
AcDbEntity
  8
0
100
AcDbLine
 10
-5.520550555274179
 20
2.451805587593028
 30
0.0
 11
-5.641744317356538
 21
2.38702617215224
 31
0.0
  0
LINE
  5
413
330
1F
100
AcDbEntity
  8
0
100
AcDbLine
 10
-5.641744317356538
 20
2.38702617215224
 30
0.0
 11
-5.758441817811749
 21
2.314459003129105
 31
0.0
  0
LINE
  5
414
330
1F
100
AcDbEntity
  8
0
100
AcDbLine
 10
-5.758441817811749
 20
2.314459003129105
 30
0.0
 11
-5.870143340027139
 21
2.2344148242821
 31
0.0
  0
LINE
  5
415
330
1F
100
AcDbEntity
  8
0
100
AcDbLine
 10
-5.870143340027139
 20
2.2344148242821
 30
0.0
 11
-5.976370560935847
 21
2.14723639707365
 31
0.0
  0
LINE
  5
416
330
1F
100
AcDbEntity
  8
0
100
AcDbLine
 10
-5.976370560935847
 20
2.14723639707365
 30
0.0
 11
-6.076668599269644
 21
2.053297032912942
 31
0.0
  0
LINE
  5
417
330
1F
100
AcDbEntity
  8
0
100
AcDbLine
 10
-6.076668599269644
 20
2.053297032912942
 30
0.0
 11
-6.170607963430352
 21
1.952998994579143
 31
0.0
  0
LINE
  5
418
330
1F
100
AcDbEntity
  8
0
100
AcDbLine
 10
-6.170607963430352
 20
1.952998994579143
 30
0.0
 11
-6.257786390638802
 21
1.846771773670439
 31
0.0
  0
LINE
  5
419
330
1F
100
AcDbEntity
  8
0
100
AcDbLine
 10
-6.257786390638802
 20
1.846771773670439
 30
0.0
 11
-6.337830569485807
 21
1.73507025145505
 31
0.0
  0
LINE
  5
41A
330
1F
100
AcDbEntity
  8
0
100
AcDbLine
 10
-6.337830569485807
 20
1.73507025145505
 30
0.0
 11
-6.410397738508942
 21
1.618372750999836
 31
0.0
  0
LINE
  5
41B
330
1F
100
AcDbEntity
  8
0
100
AcDbLine
 10
-6.410397738508942
 20
1.618372750999836
 30
0.0
 11
-6.475177153949732
 21
1.497178988917477
 31
0.0
  0
LINE
  5
41C
330
1F
100
AcDbEntity
  8
0
100
AcDbLine
 10
-6.475177153949732
 20
1.497178988917477
 30
0.0
 11
-6.531891420406148
 21
1.372007935503214
 31
0.0
  0
LINE
  5
41D
330
1F
100
AcDbEntity
  8
0
100
AcDbLine
 10
-6.531891420406148
 20
1.372007935503214
 30
0.0
 11
-6.580297678682286
 21
1.24339559242437
 31
0.0
  0
LINE
  5
41E
330
1F
100
AcDbEntity
  8
0
100
AcDbLine
 10
-6.580297678682286
 20
1.24339559242437
 30
0.0
 11
-6.620188645748749
 21
1.111892697478939
 31
0.0
  0
LINE
  5
41F
330
1F
100
AcDbEntity
  8
0
100
AcDbLine
 10
-6.620188645748749
 20
1.111892697478939
 30
0.0
 11
-6.651393502360381
 21
0.9780623662517732
 31
0.0
  0
LINE
  5
420
330
1F
100
AcDbEntity
  8
0
100
AcDbLine
 10
-6.651393502360381
 20
0.9780623662517732
 30
0.0
 11
-6.673778624530516
 21
0.8424776807671883
 31
0.0
  0
LINE
  5
421
330
1F
100
AcDbEntity
  8
0
100
AcDbLine
 10
-6.673778624530516
 20
0.8424776807671883
 30
0.0
 11
-6.687248155729392
 21
0.7057192354637674
 31
0.0
  0
LINE
  5
422
330
1F
100
AcDbEntity
  8
0
100
AcDbLine
 10
-6.687248155729392
 20
0.7057192354637674
 30
0.0
 11
-6.69174441735654
 21
0.568372650999839
 31
0.0
  0
LINE
  5
423
330
1F
100
AcDbEntity
  8
0
100
AcDbLine
 10
-6.69174441735654
 20
0.568372650999839
 30
0.0
 11
-6.687248155729392
 21
0.4310260665359164
 31
0.0
  0
LINE
  5
424
330
1F
100
AcDbEntity
  8
0
100
AcDbLine
 10
-6.687248155729392
 20
0.4310260665359164
 30
0.0
 11
-6.673778624530516
 21
0.2942676212324954
 31
0.0
  0
LINE
  5
425
330
1F
100
AcDbEntity
  8
0
100
AcDbLine
 10
-6.673778624530516
 20
0.2942676212324954
 30
0.0
 11
-6.651393502360381
 21
0.1586829357479048
 31
0.0
  0
LINE
  5
426
330
1F
100
AcDbEntity
  8
0
100
AcDbLine
 10
-6.651393502360381
 20
0.1586829357479048
 30
0.0
 11
-6.620188645748749
 21
0.024852604520739
 31
0.0
  0
LINE
  5
427
330
1F
100
AcDbEntity
  8
0
100
AcDbLine
 10
-6.620188645748749
 20
0.024852604520739
 30
0.0
 11
-6.580297678682292
 21
-0.1066502904246918
 31
0.0
  0
LINE
  5
428
330
1F
100
AcDbEntity
  8
0
100
AcDbLine
 10
-6.580297678682292
 20
-0.1066502904246918
 30
0.0
 11
-6.531891420406152
 21
-0.2352626335035356
 31
0.0
  0
LINE
  5
429
330
1F
100
AcDbEntity
  8
0
100
AcDbLine
 10
-6.531891420406152
 20
-0.2352626335035356
 30
0.0
 11
-6.475177153949739
 21
-0.3604336869177987
 31
0.0
  0
LINE
  5
42A
330
1F
100
AcDbEntity
  8
0
100
AcDbLine
 10
-6.475177153949739
 20
-0.3604336869177987
 30
0.0
 11
-6.410397738508947
 21
-0.481627449000158
 31
0.0
  0
LINE
  5
42B
330
1F
100
AcDbEntity
  8
0
100
AcDbLine
 10
-6.410397738508947
 20
-0.481627449000158
 30
0.0
 11
-6.346360017356553
 21
-0.585457349000162
 31
0.0
  0
LINE
  5
42C
330
1F
100
AcDbEntity
  8
0
100
AcDbLine
 10
-6.346360017356553
 20
-0.585457349000162
 30
0.0
 11
-6.257786390638808
 21
-0.7100264716707608
 31
0.0
  0
LINE
  5
42D
330
1F
100
AcDbEntity
  8
0
100
AcDbLine
 10
-6.257786390638808
 20
-0.7100264716707608
 30
0.0
 11
-6.170607963430361
 21
-0.8162536925794702
 31
0.0
  0
LINE
  5
42E
330
1F
100
AcDbEntity
  8
0
100
AcDbLine
 10
-6.170607963430361
 20
-0.8162536925794702
 30
0.0
 11
-6.076668599269652
 21
-0.916551730913264
 31
0.0
  0
LINE
  5
42F
330
1F
100
AcDbEntity
  8
0
100
AcDbLine
 10
-6.076668599269652
 20
-0.916551730913264
 30
0.0
 11
-5.976370560935854
 21
-1.010491095073972
 31
0.0
  0
LINE
  5
430
330
1F
100
AcDbEntity
  8
0
100
AcDbLine
 10
-5.976370560935854
 20
-1.010491095073972
 30
0.0
 11
-5.870143340027147
 21
-1.097669522282422
 31
0.0
  0
LINE
  5
431
330
1F
100
AcDbEntity
  8
0
100
AcDbLine
 10
-5.870143340027147
 20
-1.097669522282422
 30
0.0
 11
-5.758441817811758
 21
-1.177713701129427
 31
0.0
  0
LINE
  5
432
330
1F
100
AcDbEntity
  8
0
100
AcDbLine
 10
-5.758441817811758
 20
-1.177713701129427
 30
0.0
 11
-5.641744317356544
 21
-1.250280870152567
 31
0.0
  0
LINE
  5
433
330
1F
100
AcDbEntity
  8
0
100
AcDbLine
 10
-5.641744317356544
 20
-1.250280870152567
 30
0.0
 11
-5.520550555274184
 21
-1.315060285593356
 31
0.0
  0
LINE
  5
434
330
1F
100
AcDbEntity
  8
0
100
AcDbLine
 10
-5.520550555274184
 20
-1.315060285593356
 30
0.0
 11
-5.395379501859922
 21
-1.371774552049771
 31
0.0
  0
LINE
  5
435
330
1F
100
AcDbEntity
  8
0
100
AcDbLine
 10
-5.395379501859922
 20
-1.371774552049771
 30
0.0
 11
-5.266767158781078
 21
-1.420180810325912
 31
0.0
  0
LINE
  5
436
330
1F
100
AcDbEntity
  8
0
100
AcDbLine
 10
-5.266767158781078
 20
-1.420180810325912
 30
0.0
 11
-5.135264263835647
 21
-1.460071777392375
 31
0.0
  0
LINE
  5
437
330
1F
100
AcDbEntity
  8
0
100
AcDbLine
 10
-5.135264263835647
 20
-1.460071777392375
 30
0.0
 11
-5.001433932608475
 21
-1.491276634004007
 31
0.0
  0
LINE
  5
438
330
1F
100
AcDbEntity
  8
0
100
AcDbLine
 10
-5.001433932608475
 20
-1.491276634004007
 30
0.0
 11
-4.86584924712389
 21
-1.513661756174141
 31
0.0
  0
LINE
  5
439
330
1F
100
AcDbEntity
  8
0
100
AcDbLine
 10
-4.86584924712389
 20
-1.513661756174141
 30
0.0
 11
-4.72909080182047
 21
-1.527131287373016
 31
0.0
  0
LINE
  5
43A
330
1F
100
AcDbEntity
  8
0
100
AcDbLine
 10
-4.72909080182047
 20
-1.527131287373016
 30
0.0
 11
-4.591744217356541
 21
-1.531627549000166
 31
0.0
  0
LINE
  5
43B
330
1F
100
AcDbEntity
  8
0
100
AcDbLine
 10
-4.591744217356541
 20
-1.531627549000166
 30
0.0
 11
-4.454397632892613
 21
-1.527131287373016
 31
0.0
  0
LINE
  5
43C
330
1F
100
AcDbEntity
  8
0
100
AcDbLine
 10
-4.454397632892613
 20
-1.527131287373016
 30
0.0
 11
-4.317639187589192
 21
-1.513661756174141
 31
0.0
  0
LINE
  5
43D
330
1F
100
AcDbEntity
  8
0
100
AcDbLine
 10
-4.317639187589192
 20
-1.513661756174141
 30
0.0
 11
-4.182054502104601
 21
-1.491276634004007
 31
0.0
  0
LINE
  5
43E
330
1F
100
AcDbEntity
  8
0
100
AcDbLine
 10
-4.182054502104601
 20
-1.491276634004007
 30
0.0
 11
-4.048224170877435
 21
-1.460071777392375
 31
0.0
  0
LINE
  5
43F
330
1F
100
AcDbEntity
  8
0
100
AcDbLine
 10
-4.048224170877435
 20
-1.460071777392375
 30
0.0
 11
-3.916721275932005
 21
-1.420180810325912
 31
0.0
  0
LINE
  5
440
330
1F
100
AcDbEntity
  8
0
100
AcDbLine
 10
-3.916721275932005
 20
-1.420180810325912
 30
0.0
 11
-3.788108932853161
 21
-1.371774552049771
 31
0.0
  0
LINE
  5
441
330
1F
100
AcDbEntity
  8
0
100
AcDbLine
 10
-3.788108932853161
 20
-1.371774552049771
 30
0.0
 11
-3.662937879438892
 21
-1.315060285593356
 31
0.0
  0
LINE
  5
442
330
1F
100
AcDbEntity
  8
0
100
AcDbLine
 10
-3.662937879438892
 20
-1.315060285593356
 30
0.0
 11
-3.541744117356533
 21
-1.250280870152562
 31
0.0
  0
LINE
  5
443
330
1F
100
AcDbEntity
  8
0
100
AcDbLine
 10
-3.541744117356533
 20
-1.250280870152562
 30
0.0
 11
-3.425046616901324
 21
-1.177713701129427
 31
0.0
  0
LINE
  5
444
330
1F
100
AcDbEntity
  8
0
100
AcDbLine
 10
-3.425046616901324
 20
-1.177713701129427
 30
0.0
 11
-3.313345094685936
 21
-1.097669522282422
 31
0.0
  0
LINE
  5
445
330
1F
100
AcDbEntity
  8
0
100
AcDbLine
 10
-3.313345094685936
 20
-1.097669522282422
 30
0.0
 11
-3.207117873777226
 21
-1.010491095073972
 31
0.0
  0
LINE
  5
446
330
1F
100
AcDbEntity
  8
0
100
AcDbLine
 10
-3.207117873777226
 20
-1.010491095073972
 30
0.0
 11
-3.106819835443427
 21
-0.916551730913264
 31
0.0
  0
LINE
  5
447
330
1F
100
AcDbEntity
  8
0
100
AcDbLine
 10
-3.106819835443427
 20
-0.916551730913264
 30
0.0
 11
-3.012880471282719
 21
-0.8162536925794646
 31
0.0
  0
LINE
  5
448
330
1F
100
AcDbEntity
  8
0
100
AcDbLine
 10
-3.012880471282719
 20
-0.8162536925794646
 30
0.0
 11
-2.925702044074275
 21
-0.7100264716707553
 31
0.0
  0
LINE
  5
449
330
1F
100
AcDbEntity
  8
0
100
AcDbLine
 10
-2.925702044074275
 20
-0.7100264716707553
 30
0.0
 11
-2.845657865227269
 21
-0.5983249494553665
 31
0.0
  0
LINE
  5
44A
330
1F
100
AcDbEntity
  8
0
100
AcDbLine
 10
-2.845657865227269
 20
-0.5983249494553665
 30
0.0
 11
-2.773090696204135
 21
-0.4816274490001523
 31
0.0
  0
LINE
  5
44B
330
1F
100
AcDbEntity
  8
0
100
AcDbLine
 10
-2.773090696204135
 20
-0.4816274490001523
 30
0.0
 11
-2.708311280763341
 21
-0.360433686917793
 31
0.0
  0
LINE
  5
44C
330
1F
100
AcDbEntity
  8
0
100
AcDbLine
 10
-2.708311280763341
 20
-0.360433686917793
 30
0.0
 11
-2.651597014306925
 21
-0.2352626335035244
 31
0.0
  0
LINE
  5
44D
330
1F
100
AcDbEntity
  8
0
100
AcDbLine
 10
-2.651597014306925
 20
-0.2352626335035244
 30
0.0
 11
-2.60319075603079
 21
-0.1066502904246805
 31
0.0
  0
LINE
  5
44E
330
1F
100
AcDbEntity
  8
0
100
AcDbLine
 10
-2.60319075603079
 20
-0.1066502904246805
 30
0.0
 11
-2.563299788964327
 21
0.0248526045207503
 31
0.0
  0
LINE
  5
44F
330
1F
100
AcDbEntity
  8
0
100
AcDbLine
 10
-2.563299788964327
 20
0.0248526045207503
 30
0.0
 11
-2.532094932352695
 21
0.158682935747916
 31
0.0
  0
LINE
  5
450
330
1F
100
AcDbEntity
  8
0
100
AcDbLine
 10
-2.532094932352695
 20
0.158682935747916
 30
0.0
 11
-2.509709810182566
 21
0.2942676212325067
 31
0.0
  0
LINE
  5
451
330
1F
100
AcDbEntity
  8
0
100
AcDbLine
 10
-2.509709810182566
 20
0.2942676212325067
 30
0.0
 11
-2.496240278983687
 21
0.4310260665359276
 31
0.0
  0
LINE
  5
452
330
1F
100
AcDbEntity
  8
0
100
AcDbLine
 10
-2.496240278983687
 20
0.4310260665359276
 30
0.0
 11
-2.491744017356541
 21
0.5683726509998334
 31
0.0
  0
LINE
  5
453
330
1F
100
AcDbEntity
  8
0
100
AcDbLine
 10
-6.221082217356551
 20
0.5481532509998326
 30
0.0
 11
-6.69174441735654
 21
0.568372650999839
 31
0.0
  0
LINE
  5
454
330
1F
100
AcDbEntity
  8
0
100
AcDbLine
 10
-2.491744017356541
 20
0.5683726509998334
 30
0.0
 11
-5.709905217356551
 21
0.5352214509998371
 31
0.0
  0
LINE
  5
455
330
1F
100
AcDbEntity
  8
0
100
AcDbLine
 10
-4.591744217356541
 20
-1.531627549000166
 30
0.0
 11
-4.591744217356541
 21
-2.161627549000162
 31
0.0
  0
LINE
  5
456
330
1F
100
AcDbEntity
  8
0
100
AcDbLine
 10
-4.571663617356541
 20
1.060314450999837
 30
0.0
 11
-4.591744217356541
 21
-1.531627549000166
 31
0.0
  0
LINE
  5
457
330
1F
100
AcDbEntity
  8
0
100
AcDbLine
 10
-4.591744217356541
 20
2.668372850999833
 30
0.0
 11
-4.571663617356541
 21
1.060314450999837
 31
0.0
  0
LINE
  5
458
330
1F
100
AcDbEntity
  8
0
100
AcDbLine
 10
-4.901433617356549
 20
7.128371850999835
 30
0.0
 11
-4.501433617356549
 21
7.128371850999835
 31
0.0
  0
LINE
  5
459
330
1F
100
AcDbEntity
  8
0
100
AcDbLine
 10
-7.431745217356552
 20
8.768374250999834
 30
0.0
 11
-4.901433617356549
 21
8.768374250999834
 31
0.0
  0
LINE
  5
45A
330
1F
100
AcDbEntity
  8
0
100
AcDbLine
 10
-4.901433617356549
 20
8.768374250999834
 30
0.0
 11
-4.901433617356549
 21
12.61719325099984
 31
0.0
  0
LINE
  5
45B
330
1F
100
AcDbEntity
  8
0
100
AcDbLine
 10
-5.889235617356553
 20
0.3195536509998365
 30
0.0
 11
-6.086888817356552
 21
0.7899928509998352
 31
0.0
  0
LINE
  5
45C
330
1F
100
AcDbEntity
  8
0
100
AcDbLine
 10
-6.346360017356553
 20
-0.585457349000162
 30
0.0
 11
-2.837126817356555
 21
1.722202650999834
 31
0.0
  0
LINE
  5
45D
330
1F
100
AcDbEntity
  8
0
100
AcDbLine
 10
-14.59174581735655
 20
-14.73623314900017
 30
0.0
 11
-14.59174581735655
 21
-15.13623314900016
 31
0.0
  0
LINE
  5
45E
330
1F
100
AcDbEntity
  8
0
100
AcDbLine
 10
5.408255782643457
 20
-14.73623314900017
 30
0.0
 11
5.408255782643457
 21
-15.13623314900016
 31
0.0
  0
LINE
  5
45F
330
1F
100
AcDbEntity
  8
0
100
AcDbLine
 10
12.45213698264345
 20
-9.431628149000163
 30
0.0
 11
12.85213698264346
 21
-9.431628149000163
 31
0.0
  0
LINE
  5
460
330
1F
100
AcDbEntity
  8
0
100
AcDbLine
 10
12.45213698264345
 20
10.56837425099984
 30
0.0
 11
12.85213698264346
 21
10.56837425099984
 31
0.0
  0
LINE
  5
461
330
1F
100
AcDbEntity
  8
0
100
AcDbLine
 10
-9.641001017356553
 20
-2.271628149000165
 30
0.0
 11
-10.04100101735655
 21
-2.271628149000165
 31
0.0
  0
LINE
  5
462
330
1F
100
AcDbEntity
  8
0
100
AcDbLine
 10
-9.641001017356553
 20
3.408373650999835
 30
0.0
 11
-10.04100101735655
 21
3.408373650999835
 31
0.0
  0
LINE
  5
463
330
1F
100
AcDbEntity
  8
0
100
AcDbLine
 10
-9.854883617356549
 20
-10.05476654900017
 30
0.0
 11
-10.13772501735655
 21
-10.33760954900016
 31
0.0
  0
LINE
  5
464
330
1F
100
AcDbEntity
  8
0
100
AcDbLine
 10
0.6713935826434482
 20
-10.05476654900017
 30
0.0
 11
0.9542365826434499
 21
-10.33760954900016
 31
0.0
  0
LINE
  5
465
330
1F
100
AcDbEntity
  8
0
100
AcDbLine
 10
3.608255782643449
 20
2.780817650999837
 30
0.0
 11
3.608255782643449
 21
2.380817650999838
 31
0.0
  0
LINE
  5
466
330
1F
100
AcDbEntity
  8
0
100
AcDbLine
 10
5.408255782643457
 20
2.780817650999837
 30
0.0
 11
5.408255782643457
 21
2.380817650999838
 31
0.0
  0
LINE
  5
467
330
1F
100
AcDbEntity
  8
0
100
AcDbLine
 10
5.408255782643457
 20
2.780817650999837
 30
0.0
 11
8.165735582643443
 21
2.780817650999837
 31
0.0
  0
LINE
  5
468
330
1F
100
AcDbEntity
  8
0
100
AcDbLine
 10
-0.3382072173565541
 20
3.761248250999832
 30
0.0
 11
1.385254782643445
 21
2.037784850999837
 31
0.0
  0
LINE
  5
469
330
1F
100
AcDbEntity
  8
0
100
AcDbLine
 10
-0.3382072173565541
 20
3.761248250999832
 30
0.0
 11
-0.6910850173565499
 21
3.408373650999835
 31
0.0
  0
LINE
  5
46A
330
1F
100
AcDbEntity
  8
0
100
AcDbLine
 10
-1.398867017356554
 20
4.821908050999832
 30
0.0
 11
-1.75174481735655
 21
4.469033450999835
 31
0.0
  0
LINE
  5
46B
330
1F
100
AcDbEntity
  8
0
100
AcDbLine
 10
-9.691085017356551
 20
8.768374250999834
 30
0.0
 11
-10.09108501735655
 21
8.768374250999834
 31
0.0
  0
LINE
  5
46C
330
1F
100
AcDbEntity
  8
0
100
AcDbLine
 10
-6.69174441735654
 20
0.568372650999839
 30
0.0
 11
-7.321744417356553
 21
0.5683726509998334
 31
0.0
  0
LINE
  5
46D
330
1F
100
AcDbEntity
  8
0
100
AcDbLine
 10
-5.709905217356551
 20
0.5352214509998371
 30
0.0
 11
-6.221082217356551
 21
0.5481532509998326
 31
0.0
  0
LINE
  5
46E
330
1F
100
AcDbEntity
  8
0
100
AcDbLine
 10
-4.901433617356549
 20
8.768374250999834
 30
0.0
 11
-4.501433617356549
 21
8.768374250999834
 31
0.0
  0
LINE
  5
46F
330
1F
100
AcDbEntity
  8
0
100
AcDbLine
 10
-6.086888817356552
 20
0.7899928509998352
 30
0.0
 11
-6.099179817356551
 21
0.8936168509998347
 31
0.0
  0
LINE
  5
470
330
1F
100
AcDbEntity
  8
0
100
AcDbLine
 10
-2.837126817356555
 20
1.722202650999834
 30
0.0
 11
-2.001595217356554
 21
2.271644250999835
 31
0.0
  0
LINE
  5
471
330
1F
100
AcDbEntity
  8
0
100
AcDbLine
 10
0.9075965826434449
 20
-7.631627349000165
 30
0.0
 11
1.023859354650005
 21
-7.525735489531421
 31
0.0
  0
LINE
  5
472
330
1F
100
AcDbEntity
  8
0
100
AcDbLine
 10
1.023859354650005
 20
-7.525735489531421
 30
0.0
 11
1.122835830856427
 21
-7.403531663019494
 31
0.0
  0
LINE
  5
473
330
1F
100
AcDbEntity
  8
0
100
AcDbLine
 10
1.122835830856427
 20
-7.403531663019494
 30
0.0
 11
1.202265146829781
 21
-7.267807303303183
 31
0.0
  0
LINE
  5
474
330
1F
100
AcDbEntity
  8
0
100
AcDbLine
 10
1.202265146829781
 20
-7.267807303303183
 30
0.0
 11
1.260332943014155
 21
-7.121662686218983
 31
0.0
  0
LINE
  5
475
330
1F
100
AcDbEntity
  8
0
100
AcDbLine
 10
1.260332943014155
 20
-7.121662686218983
 30
0.0
 11
1.295712809133861
 21
-6.968436111729605
 31
0.0
  0
LINE
  5
476
330
1F
100
AcDbEntity
  8
0
100
AcDbLine
 10
1.295712809133861
 20
-6.968436111729605
 30
0.0
 11
1.307596582643441
 21
-6.811627649000163
 31
0.0
  0
LINE
  5
477
330
1F
100
AcDbEntity
  8
0
100
AcDbLine
 10
1.307596582643441
 20
-6.811627649000163
 30
0.0
 11
1.295712809133861
 21
-6.654819186270722
 31
0.0
  0
LINE
  5
478
330
1F
100
AcDbEntity
  8
0
100
AcDbLine
 10
1.295712809133861
 20
-6.654819186270722
 30
0.0
 11
1.260332943014155
 21
-6.501592611781343
 31
0.0
  0
LINE
  5
479
330
1F
100
AcDbEntity
  8
0
100
AcDbLine
 10
1.260332943014155
 20
-6.501592611781343
 30
0.0
 11
1.202265146829781
 21
-6.355447994697143
 31
0.0
  0
LINE
  5
47A
330
1F
100
AcDbEntity
  8
0
100
AcDbLine
 10
1.202265146829781
 20
-6.355447994697143
 30
0.0
 11
1.122835830856427
 21
-6.219723634980833
 31
0.0
  0
LINE
  5
47B
330
1F
100
AcDbEntity
  8
0
100
AcDbLine
 10
1.122835830856427
 20
-6.219723634980833
 30
0.0
 11
1.023859354650005
 21
-6.097519808468905
 31
0.0
  0
LINE
  5
47C
330
1F
100
AcDbEntity
  8
0
100
AcDbLine
 10
1.023859354650005
 20
-6.097519808468905
 30
0.0
 11
0.9075965826434449
 21
-5.991627949000162
 31
0.0
  0
LINE
  5
47D
330
1F
100
AcDbEntity
  8
0
100
AcDbLine
 10
3.608255782643449
 20
-4.930968149000162
 30
0.0
 11
3.502363923174708
 21
-5.047230921006725
 31
0.0
  0
LINE
  5
47E
330
1F
100
AcDbEntity
  8
0
100
AcDbLine
 10
3.502363923174708
 20
-5.047230921006725
 30
0.0
 11
3.380160096662779
 21
-5.146207397213146
 31
0.0
  0
LINE
  5
47F
330
1F
100
AcDbEntity
  8
0
100
AcDbLine
 10
3.380160096662779
 20
-5.146207397213146
 30
0.0
 11
3.244435736946467
 21
-5.2256367131865
 31
0.0
  0
LINE
  5
480
330
1F
100
AcDbEntity
  8
0
100
AcDbLine
 10
3.244435736946467
 20
-5.2256367131865
 30
0.0
 11
3.098291119862268
 21
-5.283704509370875
 31
0.0
  0
LINE
  5
481
330
1F
100
AcDbEntity
  8
0
100
AcDbLine
 10
3.098291119862268
 20
-5.283704509370875
 30
0.0
 11
2.94506454537289
 21
-5.319084375490583
 31
0.0
  0
LINE
  5
482
330
1F
100
AcDbEntity
  8
0
100
AcDbLine
 10
2.94506454537289
 20
-5.319084375490583
 30
0.0
 11
2.788256082643447
 21
-5.330968149000163
 31
0.0
  0
LINE
  5
483
330
1F
100
AcDbEntity
  8
0
100
AcDbLine
 10
2.788256082643447
 20
-5.330968149000163
 30
0.0
 11
2.631447619914004
 21
-5.319084375490583
 31
0.0
  0
LINE
  5
484
330
1F
100
AcDbEntity
  8
0
100
AcDbLine
 10
2.631447619914004
 20
-5.319084375490583
 30
0.0
 11
2.478221045424626
 21
-5.283704509370875
 31
0.0
  0
LINE
  5
485
330
1F
100
AcDbEntity
  8
0
100
AcDbLine
 10
2.478221045424626
 20
-5.283704509370875
 30
0.0
 11
2.332076428340427
 21
-5.2256367131865
 31
0.0
  0
LINE
  5
486
330
1F
100
AcDbEntity
  8
0
100
AcDbLine
 10
2.332076428340427
 20
-5.2256367131865
 30
0.0
 11
2.196352068624115
 21
-5.146207397213146
 31
0.0
  0
LINE
  5
487
330
1F
100
AcDbEntity
  8
0
100
AcDbLine
 10
2.196352068624115
 20
-5.146207397213146
 30
0.0
 11
2.074148242112186
 21
-5.047230921006725
 31
0.0
  0
LINE
  5
488
330
1F
100
AcDbEntity
  8
0
100
AcDbLine
 10
2.074148242112186
 20
-5.047230921006725
 30
0.0
 11
1.968256382643445
 21
-4.930968149000162
 31
0.0
  0
LINE
  5
489
330
1F
100
AcDbEntity
  8
0
100
AcDbLine
 10
1.968256382643445
 20
6.067712050999835
 30
0.0
 11
2.074148242112186
 21
6.183974823006397
 31
0.0
  0
LINE
  5
48A
330
1F
100
AcDbEntity
  8
0
100
AcDbLine
 10
2.074148242112186
 20
6.183974823006397
 30
0.0
 11
2.196352068624115
 21
6.282951299212817
 31
0.0
  0
LINE
  5
48B
330
1F
100
AcDbEntity
  8
0
100
AcDbLine
 10
2.196352068624115
 20
6.282951299212817
 30
0.0
 11
2.332076428340427
 21
6.362380615186171
 31
0.0
  0
LINE
  5
48C
330
1F
100
AcDbEntity
  8
0
100
AcDbLine
 10
2.332076428340427
 20
6.362380615186171
 30
0.0
 11
2.478221045424626
 21
6.420448411370547
 31
0.0
  0
LINE
  5
48D
330
1F
100
AcDbEntity
  8
0
100
AcDbLine
 10
2.478221045424626
 20
6.420448411370547
 30
0.0
 11
2.631447619914007
 21
6.455828277490254
 31
0.0
  0
LINE
  5
48E
330
1F
100
AcDbEntity
  8
0
100
AcDbLine
 10
2.631447619914007
 20
6.455828277490254
 30
0.0
 11
2.788256082643447
 21
6.467712050999834
 31
0.0
  0
LINE
  5
48F
330
1F
100
AcDbEntity
  8
0
100
AcDbLine
 10
2.788256082643447
 20
6.467712050999834
 30
0.0
 11
2.94506454537289
 21
6.455828277490254
 31
0.0
  0
LINE
  5
490
330
1F
100
AcDbEntity
  8
0
100
AcDbLine
 10
2.94506454537289
 20
6.455828277490254
 30
0.0
 11
3.098291119862268
 21
6.420448411370547
 31
0.0
  0
LINE
  5
491
330
1F
100
AcDbEntity
  8
0
100
AcDbLine
 10
3.098291119862268
 20
6.420448411370547
 30
0.0
 11
3.244435736946467
 21
6.362380615186171
 31
0.0
  0
LINE
  5
492
330
1F
100
AcDbEntity
  8
0
100
AcDbLine
 10
3.244435736946467
 20
6.362380615186171
 30
0.0
 11
3.380160096662779
 21
6.282951299212817
 31
0.0
  0
LINE
  5
493
330
1F
100
AcDbEntity
  8
0
100
AcDbLine
 10
3.380160096662779
 20
6.282951299212817
 30
0.0
 11
3.502363923174708
 21
6.183974823006397
 31
0.0
  0
LINE
  5
494
330
1F
100
AcDbEntity
  8
0
100
AcDbLine
 10
3.502363923174708
 20
6.183974823006397
 30
0.0
 11
3.608255782643449
 21
6.067712050999835
 31
0.0
  0
LINE
  5
495
330
1F
100
AcDbEntity
  8
0
100
AcDbLine
 10
0.9075965826434449
 20
7.128371850999835
 30
0.0
 11
1.023859374009072
 21
7.234264009191379
 31
0.0
  0
LINE
  5
496
330
1F
100
AcDbEntity
  8
0
100
AcDbLine
 10
1.023859374009072
 20
7.234264009191379
 30
0.0
 11
1.12283585369628
 21
7.356468110150875
 31
0.0
  0
LINE
  5
497
330
1F
100
AcDbEntity
  8
0
100
AcDbLine
 10
1.12283585369628
 20
7.356468110150875
 30
0.0
 11
1.202265164360452
 21
7.492192722620411
 31
0.0
  0
LINE
  5
498
330
1F
100
AcDbEntity
  8
0
100
AcDbLine
 10
1.202265164360452
 20
7.492192722620411
 30
0.0
 11
1.260332952319167
 21
7.638337574819084
 31
0.0
  0
LINE
  5
499
330
1F
100
AcDbEntity
  8
0
100
AcDbLine
 10
1.260332952319167
 20
7.638337574819084
 30
0.0
 11
1.295712811689868
 21
7.79156437199732
 31
0.0
  0
LINE
  5
49A
330
1F
100
AcDbEntity
  8
0
100
AcDbLine
 10
1.295712811689868
 20
7.79156437199732
 30
0.0
 11
1.307596582643444
 21
7.948373050999835
 31
0.0
  0
LINE
  5
49B
330
1F
100
AcDbEntity
  8
0
100
AcDbLine
 10
1.307596582643444
 20
7.948373050999835
 30
0.0
 11
1.295712811689868
 21
8.105181730002348
 31
0.0
  0
LINE
  5
49C
330
1F
100
AcDbEntity
  8
0
100
AcDbLine
 10
1.295712811689868
 20
8.105181730002348
 30
0.0
 11
1.260332952319167
 21
8.258408527180586
 31
0.0
  0
LINE
  5
49D
330
1F
100
AcDbEntity
  8
0
100
AcDbLine
 10
1.260332952319167
 20
8.258408527180586
 30
0.0
 11
1.202265164360452
 21
8.404553379379259
 31
0.0
  0
LINE
  5
49E
330
1F
100
AcDbEntity
  8
0
100
AcDbLine
 10
1.202265164360452
 20
8.404553379379259
 30
0.0
 11
1.12283585369628
 21
8.540277991848795
 31
0.0
  0
LINE
  5
49F
330
1F
100
AcDbEntity
  8
0
100
AcDbLine
 10
1.12283585369628
 20
8.540277991848795
 30
0.0
 11
1.023859374009072
 21
8.66248209280829
 31
0.0
  0
LINE
  5
4A0
330
1F
100
AcDbEntity
  8
0
100
AcDbLine
 10
1.023859374009072
 20
8.66248209280829
 30
0.0
 11
0.9075965826434449
 21
8.768374250999834
 31
0.0
  0
LINE
  5
4A1
330
1F
100
AcDbEntity
  8
0
100
AcDbLine
 10
-10.09108501735655
 20
7.128371850999835
 30
0.0
 11
-10.20734780872218
 21
7.234264009191379
 31
0.0
  0
LINE
  5
4A2
330
1F
100
AcDbEntity
  8
0
100
AcDbLine
 10
-10.20734780872218
 20
7.234264009191379
 30
0.0
 11
-10.30632428840939
 21
7.356468110150875
 31
0.0
  0
LINE
  5
4A3
330
1F
100
AcDbEntity
  8
0
100
AcDbLine
 10
-10.30632428840939
 20
7.356468110150875
 30
0.0
 11
-10.38575359907356
 21
7.492192722620411
 31
0.0
  0
LINE
  5
4A4
330
1F
100
AcDbEntity
  8
0
100
AcDbLine
 10
-10.38575359907356
 20
7.492192722620411
 30
0.0
 11
-10.44382138703227
 21
7.638337574819084
 31
0.0
  0
LINE
  5
4A5
330
1F
100
AcDbEntity
  8
0
100
AcDbLine
 10
-10.44382138703227
 20
7.638337574819084
 30
0.0
 11
-10.47920124640297
 21
7.79156437199732
 31
0.0
  0
LINE
  5
4A6
330
1F
100
AcDbEntity
  8
0
100
AcDbLine
 10
-10.47920124640297
 20
7.79156437199732
 30
0.0
 11
-10.49108501735655
 21
7.948373050999835
 31
0.0
  0
LINE
  5
4A7
330
1F
100
AcDbEntity
  8
0
100
AcDbLine
 10
-10.49108501735655
 20
7.948373050999835
 30
0.0
 11
-10.47920124640297
 21
8.105181730002348
 31
0.0
  0
LINE
  5
4A8
330
1F
100
AcDbEntity
  8
0
100
AcDbLine
 10
-10.47920124640297
 20
8.105181730002348
 30
0.0
 11
-10.44382138703227
 21
8.258408527180586
 31
0.0
  0
LINE
  5
4A9
330
1F
100
AcDbEntity
  8
0
100
AcDbLine
 10
-10.44382138703227
 20
8.258408527180586
 30
0.0
 11
-10.38575359907356
 21
8.404553379379259
 31
0.0
  0
LINE
  5
4AA
330
1F
100
AcDbEntity
  8
0
100
AcDbLine
 10
-10.38575359907356
 20
8.404553379379259
 30
0.0
 11
-10.30632428840939
 21
8.540277991848795
 31
0.0
  0
LINE
  5
4AB
330
1F
100
AcDbEntity
  8
0
100
AcDbLine
 10
-10.30632428840939
 20
8.540277991848795
 30
0.0
 11
-10.20734780872218
 21
8.66248209280829
 31
0.0
  0
LINE
  5
4AC
330
1F
100
AcDbEntity
  8
0
100
AcDbLine
 10
-10.20734780872218
 20
8.66248209280829
 30
0.0
 11
-10.09108501735655
 21
8.768374250999834
 31
0.0
  0
LINE
  5
4AD
330
1F
100
AcDbEntity
  8
0
100
AcDbLine
 10
-11.15174481735655
 20
6.067712050999835
 30
0.0
 11
-11.25763667682529
 21
6.183974823006397
 31
0.0
  0
LINE
  5
4AE
330
1F
100
AcDbEntity
  8
0
100
AcDbLine
 10
-11.25763667682529
 20
6.183974823006397
 30
0.0
 11
-11.37984050333722
 21
6.282951299212817
 31
0.0
  0
LINE
  5
4AF
330
1F
100
AcDbEntity
  8
0
100
AcDbLine
 10
-11.37984050333722
 20
6.282951299212817
 30
0.0
 11
-11.51556486305353
 21
6.362380615186171
 31
0.0
  0
LINE
  5
4B0
330
1F
100
AcDbEntity
  8
0
100
AcDbLine
 10
-11.51556486305353
 20
6.362380615186171
 30
0.0
 11
-11.66170948013773
 21
6.420448411370547
 31
0.0
  0
LINE
  5
4B1
330
1F
100
AcDbEntity
  8
0
100
AcDbLine
 10
-11.66170948013773
 20
6.420448411370547
 30
0.0
 11
-11.81493605462711
 21
6.455828277490254
 31
0.0
  0
LINE
  5
4B2
330
1F
100
AcDbEntity
  8
0
100
AcDbLine
 10
-11.81493605462711
 20
6.455828277490254
 30
0.0
 11
-11.97174451735655
 21
6.467712050999834
 31
0.0
  0
LINE
  5
4B3
330
1F
100
AcDbEntity
  8
0
100
AcDbLine
 10
-11.97174451735655
 20
6.467712050999834
 30
0.0
 11
-12.128552980086
 21
6.455828277490254
 31
0.0
  0
LINE
  5
4B4
330
1F
100
AcDbEntity
  8
0
100
AcDbLine
 10
-12.128552980086
 20
6.455828277490254
 30
0.0
 11
-12.28177955457537
 21
6.420448411370547
 31
0.0
  0
LINE
  5
4B5
330
1F
100
AcDbEntity
  8
0
100
AcDbLine
 10
-12.28177955457537
 20
6.420448411370547
 30
0.0
 11
-12.42792417165957
 21
6.362380615186171
 31
0.0
  0
LINE
  5
4B6
330
1F
100
AcDbEntity
  8
0
100
AcDbLine
 10
-12.42792417165957
 20
6.362380615186171
 30
0.0
 11
-12.56364853137588
 21
6.282951299212817
 31
0.0
  0
LINE
  5
4B7
330
1F
100
AcDbEntity
  8
0
100
AcDbLine
 10
-12.56364853137588
 20
6.282951299212817
 30
0.0
 11
-12.68585235788781
 21
6.183974823006397
 31
0.0
  0
LINE
  5
4B8
330
1F
100
AcDbEntity
  8
0
100
AcDbLine
 10
-12.68585235788781
 20
6.183974823006397
 30
0.0
 11
-12.79174421735655
 21
6.067712050999835
 31
0.0
  0
LINE
  5
4B9
330
1F
100
AcDbEntity
  8
0
100
AcDbLine
 10
-11.15174481735655
 20
-4.930968149000162
 30
0.0
 11
-11.25763667682529
 21
-5.047230921006724
 31
0.0
  0
LINE
  5
4BA
330
1F
100
AcDbEntity
  8
0
100
AcDbLine
 10
-11.25763667682529
 20
-5.047230921006724
 30
0.0
 11
-11.37984050333722
 21
-5.146207397213145
 31
0.0
  0
LINE
  5
4BB
330
1F
100
AcDbEntity
  8
0
100
AcDbLine
 10
-11.37984050333722
 20
-5.146207397213145
 30
0.0
 11
-11.51556486305353
 21
-5.225636713186499
 31
0.0
  0
LINE
  5
4BC
330
1F
100
AcDbEntity
  8
0
100
AcDbLine
 10
-11.51556486305353
 20
-5.225636713186499
 30
0.0
 11
-11.66170948013773
 21
-5.283704509370874
 31
0.0
  0
LINE
  5
4BD
330
1F
100
AcDbEntity
  8
0
100
AcDbLine
 10
-11.66170948013773
 20
-5.283704509370874
 30
0.0
 11
-11.81493605462711
 21
-5.319084375490582
 31
0.0
  0
LINE
  5
4BE
330
1F
100
AcDbEntity
  8
0
100
AcDbLine
 10
-11.81493605462711
 20
-5.319084375490582
 30
0.0
 11
-11.97174451735655
 21
-5.330968149000162
 31
0.0
  0
LINE
  5
4BF
330
1F
100
AcDbEntity
  8
0
100
AcDbLine
 10
-11.97174451735655
 20
-5.330968149000162
 30
0.0
 11
-12.128552980086
 21
-5.319084375490582
 31
0.0
  0
LINE
  5
4C0
330
1F
100
AcDbEntity
  8
0
100
AcDbLine
 10
-12.128552980086
 20
-5.319084375490582
 30
0.0
 11
-12.28177955457537
 21
-5.283704509370874
 31
0.0
  0
LINE
  5
4C1
330
1F
100
AcDbEntity
  8
0
100
AcDbLine
 10
-12.28177955457537
 20
-5.283704509370874
 30
0.0
 11
-12.42792417165957
 21
-5.225636713186499
 31
0.0
  0
LINE
  5
4C2
330
1F
100
AcDbEntity
  8
0
100
AcDbLine
 10
-12.42792417165957
 20
-5.225636713186499
 30
0.0
 11
-12.56364853137588
 21
-5.146207397213145
 31
0.0
  0
LINE
  5
4C3
330
1F
100
AcDbEntity
  8
0
100
AcDbLine
 10
-12.56364853137588
 20
-5.146207397213145
 30
0.0
 11
-12.68585235788781
 21
-5.047230921006724
 31
0.0
  0
LINE
  5
4C4
330
1F
100
AcDbEntity
  8
0
100
AcDbLine
 10
-12.68585235788781
 20
-5.047230921006724
 30
0.0
 11
-12.79174421735655
 21
-4.930968149000162
 31
0.0
  0
LINE
  5
4C5
330
1F
100
AcDbEntity
  8
0
100
AcDbLine
 10
-10.09108501735655
 20
-5.991627949000162
 30
0.0
 11
-10.20734778936312
 21
-6.097519808468904
 31
0.0
  0
LINE
  5
4C6
330
1F
100
AcDbEntity
  8
0
100
AcDbLine
 10
-10.20734778936312
 20
-6.097519808468904
 30
0.0
 11
-10.30632426556953
 21
-6.219723634980832
 31
0.0
  0
LINE
  5
4C7
330
1F
100
AcDbEntity
  8
0
100
AcDbLine
 10
-10.30632426556953
 20
-6.219723634980832
 30
0.0
 11
-10.38575358154289
 21
-6.355447994697143
 31
0.0
  0
LINE
  5
4C8
330
1F
100
AcDbEntity
  8
0
100
AcDbLine
 10
-10.38575358154289
 20
-6.355447994697143
 30
0.0
 11
-10.44382137772726
 21
-6.501592611781343
 31
0.0
  0
LINE
  5
4C9
330
1F
100
AcDbEntity
  8
0
100
AcDbLine
 10
-10.44382137772726
 20
-6.501592611781343
 30
0.0
 11
-10.47920124384697
 21
-6.654819186270722
 31
0.0
  0
LINE
  5
4CA
330
1F
100
AcDbEntity
  8
0
100
AcDbLine
 10
-10.47920124384697
 20
-6.654819186270722
 30
0.0
 11
-10.49108501735655
 21
-6.811627649000163
 31
0.0
  0
LINE
  5
4CB
330
1F
100
AcDbEntity
  8
0
100
AcDbLine
 10
-10.49108501735655
 20
-6.811627649000163
 30
0.0
 11
-10.47920124384697
 21
-6.968436111729605
 31
0.0
  0
LINE
  5
4CC
330
1F
100
AcDbEntity
  8
0
100
AcDbLine
 10
-10.47920124384697
 20
-6.968436111729605
 30
0.0
 11
-10.44382137772726
 21
-7.121662686218983
 31
0.0
  0
LINE
  5
4CD
330
1F
100
AcDbEntity
  8
0
100
AcDbLine
 10
-10.44382137772726
 20
-7.121662686218983
 30
0.0
 11
-10.38575358154289
 21
-7.267807303303183
 31
0.0
  0
LINE
  5
4CE
330
1F
100
AcDbEntity
  8
0
100
AcDbLine
 10
-10.38575358154289
 20
-7.267807303303183
 30
0.0
 11
-10.30632426556953
 21
-7.403531663019495
 31
0.0
  0
LINE
  5
4CF
330
1F
100
AcDbEntity
  8
0
100
AcDbLine
 10
-10.30632426556953
 20
-7.403531663019495
 30
0.0
 11
-10.20734778936312
 21
-7.525735489531423
 31
0.0
  0
LINE
  5
4D0
330
1F
100
AcDbEntity
  8
0
100
AcDbLine
 10
-10.20734778936312
 20
-7.525735489531423
 30
0.0
 11
-10.09108501735655
 21
-7.631627349000165
 31
0.0
  0
ENDSEC
  0
SECTION
  2
OBJECTS
  0
DICTIONARY
  5
C
330
0
100
AcDbDictionary
  3
ACAD_GROUP
350
D
  3
ACAD_LAYOUT
350
1A
  3
ACAD_MATERIAL
350
43
  3
ACAD_MLEADERSTYLE
350
4F3
  3
ACAD_MLINESTYLE
350
17
  3
ACAD_PLOTSETTINGS
350
19
  3
ACAD_SCALELIST
350
47
  3
ACAD_VISUALSTYLE
350
2A
  3
ACDBHEADERROUNDTRIPXREC
350
4D1
  3
ACDBVARIABLEDICTIONARY
350
4F1
  0
DICTIONARY
  5
4F8
330
8
100
AcDbDictionary
280
     1
  3
ACAD_XREC_ROUNDTRIP
360
4F9
  0
DICTIONARY
  5
D
102
{ACAD_REACTORS
330
C
102
}
330
C
100
AcDbDictionary
  0
DICTIONARY
  5
1A
102
{ACAD_REACTORS
330
C
102
}
330
C
100
AcDbDictionary
  0
DICTIONARY
  5
43
102
{ACAD_REACTORS
330
C
102
}
330
C
100
AcDbDictionary
  3
BYBLOCK
350
45
  3
BYLAYER
350
44
  3
GLOBAL
350
46
  0
DICTIONARY
  5
4F3
102
{ACAD_REACTORS
330
C
102
}
330
C
100
AcDbDictionary
  0
DICTIONARY
  5
17
102
{ACAD_REACTORS
330
C
102
}
330
C
100
AcDbDictionary
  3
STANDARD
350
18
  0
DICTIONARY
  5
19
102
{ACAD_REACTORS
330
C
102
}
330
C
100
AcDbDictionary
  0
DICTIONARY
  5
47
102
{ACAD_REACTORS
330
C
102
}
330
C
100
AcDbDictionary
  3
A0
350
48
  3
A1
350
49
  3
A2
350
4A
  3
A3
350
4B
  3
A4
350
4C
  3
A5
350
4D
  3
A6
350
4E
  3
A7
350
4F
  3
A8
350
50
  3
A9
350
51
  3
B0
350
52
  3
B1
350
53
  3
B2
350
54
  3
B3
350
55
  3
B4
350
56
  3
B5
350
57
  3
B6
350
58
  3
B7
350
59
  3
B8
350
5A
  3
B9
350
5B
  3
C0
350
5C
  3
C1
350
5D
  3
C2
350
5E
  3
C3
350
5F
  3
C4
350
60
  3
C5
350
61
  3
C6
350
62
  3
C7
350
63
  3
C8
350
64
  3
C9
350
65
  3
D0
350
66
  3
D1
350
67
  3
D2
350
68
  0
DICTIONARY
  5
2A
102
{ACAD_REACTORS
330
C
102
}
330
C
100
AcDbDictionary
  3
2DWIREFRAME
350
2F
  3
BASIC
350
32
  3
BRIGHTEN
350
36
  3
COLORCHANGE
350
3A
  3
CONCEPTUAL
350
34
  3
DIM
350
35
  3
EDGECOLOROFF
350
3D
  3
FACEPATTERN
350
39
  3
FLAT
350
2B
  3
FLATWITHEDGES
350
2C
  3
GOURAUD
350
2D
  3
GOURAUDWITHEDGES
350
2E
  3
HIDDEN
350
31
  3
JITTEROFF
350
3B
  3
LINEPATTERN
350
38
  3
OVERHANGOFF
350
3C
  3
REALISTIC
350
33
  3
SHADED
350
42
  3
SHADED_WITH_EDGES
350
41
  3
SHADES_OF_GRAY
350
3E
  3
SKETCHY
350
3F
  3
THICKEN
350
37
  3
WIREFRAME
350
30
  3
X-RAY
350
40
  0
DICTIONARY
  5
4D1
102
{ACAD_REACTORS
330
C
102
}
330
C
100
AcDbDictionary
  3
CEPSNTYPE
350
4DA
  3
DIMSTYLEDATA
350
4F0
  3
FINGERPRINTGUID
350
4DB
  3
HYPERLINKBASE
350
4D4
  3
INSUNITS
350
4D9
  3
LAYOUTDICT
350
4D6
  3
LWETCUNION
350
4D8
  3
PLOTSETDICT
350
4D7
  3
PSVPSCALE
350
4DD
  3
PUCSBASE
350
4E0
  3
PUCSORGBACK
350
4E6
  3
PUCSORGBOTTOM
350
4E2
  3
PUCSORGFRONT
350
4E5
  3
PUCSORGLEFT
350
4E3
  3
PUCSORGRIGHT
350
4E4
  3
PUCSORGTOP
350
4E1
  3
PUCSORTHOREF
350
4DE
  3
PUCSORTHOVIEW
350
4DF
  3
STYLESHEET
350
4D5
  3
TSTACKALIGN
350
4D2
  3
TSTACKSIZE
350
4D3
  3
UCSBASE
350
4E9
  3
UCSORGBACK
350
4EF
  3
UCSORGBOTTOM
350
4EB
  3
UCSORGFRONT
350
4EE
  3
UCSORGLEFT
350
4EC
  3
UCSORGRIGHT
350
4ED
  3
UCSORGTOP
350
4EA
  3
UCSORTHOREF
350
4E7
  3
UCSORTHOVIEW
350
4E8
  3
VERSIONGUID
350
4DC
  0
DICTIONARY
  5
4F1
102
{ACAD_REACTORS
330
C
102
}
330
C
100
AcDbDictionary
  3
CANNOSCALE
350
4FA
  3
DIMASSOC
350
4F6
  3
HIDETEXT
350
4F7
  3
MSLTSCALE
350
4FB
  0
XRECORD
  5
4F9
102
{ACAD_REACTORS
330
4F8
102
}
330
4F8
100
AcDbXrecord
102
VTR_0.000_0.000_1.000_1.000_GRIDDISPLAY
 70
     3
102
VTR_0.000_0.000_1.000_1.000_GRIDMAJOR
 70
     5
102
VTR_0.000_0.000_1.000_1.000_DEFAULTLIGHTING
280
     1
102
VTR_0.000_0.000_1.000_1.000_DEFAULTLIGHTINGTYPE
 70
     1
102
VTR_0.000_0.000_1.000_1.000_BRIGHTNESS
141
0.0
102
VTR_0.000_0.000_1.000_1.000_CONTRAST
142
0.0
  0
MATERIAL
  5
45
102
{ACAD_REACTORS
330
43
102
}
102
{ACAD_XDICTIONARY
360
4FE
102
}
330
43
100
AcDbMaterial
  1
BYBLOCK
  0
MATERIAL
  5
44
102
{ACAD_REACTORS
330
43
102
}
102
{ACAD_XDICTIONARY
360
4FC
102
}
330
43
100
AcDbMaterial
  1
BYLAYER
  0
MATERIAL
  5
46
102
{ACAD_REACTORS
330
43
102
}
102
{ACAD_XDICTIONARY
360
500
102
}
330
43
100
AcDbMaterial
  1
GLOBAL
  0
MLINESTYLE
  5
18
102
{ACAD_REACTORS
330
17
102
}
330
17
100
AcDbMlineStyle
  2
Standard
 70
     0
  3

 62
   256
 51
90.0
 52
90.0
 71
     2
 49
0.5
 62
   256
  6
BYLAYER
 49
-0.5
 62
   256
  6
BYLAYER
  0
ACAD_PROXY_OBJECT
  5
48
102
{ACAD_REACTORS
330
47
102
}
330
47
100
AcDbProxyObject
 90
      499
 91
      503
 93
       41
310
903313A31580
  0
ACAD_PROXY_OBJECT
  5
49
102
{ACAD_REACTORS
330
47
102
}
330
47
100
AcDbProxyObject
 90
      499
 91
      503
 93
      105
310
903313A324000000000000004000
  0
ACAD_PROXY_OBJECT
  5
4A
102
{ACAD_REACTORS
330
47
102
}
330
47
100
AcDbProxyObject
 90
      499
 91
      503
 93
      105
310
903313A344000000000000104000
  0
ACAD_PROXY_OBJECT
  5
4B
102
{ACAD_REACTORS
330
47
102
}
330
47
100
AcDbProxyObject
 90
      499
 91
      503
 93
      105
310
903313A354000000000000144000
  0
ACAD_PROXY_OBJECT
  5
4C
102
{ACAD_REACTORS
330
47
102
}
330
47
100
AcDbProxyObject
 90
      499
 91
      503
 93
      105
310
903313A384000000000000204000
  0
ACAD_PROXY_OBJECT
  5
4D
102
{ACAD_REACTORS
330
47
102
}
330
47
100
AcDbProxyObject
 90
      499
 91
      503
 93
      113
310
904313A31304000000000000244000
  0
ACAD_PROXY_OBJECT
  5
4E
102
{ACAD_REACTORS
330
47
102
}
330
47
100
AcDbProxyObject
 90
      499
 91
      503
 93
      113
310
904313A31364000000000000304000
  0
ACAD_PROXY_OBJECT
  5
4F
102
{ACAD_REACTORS
330
47
102
}
330
47
100
AcDbProxyObject
 90
      499
 91
      503
 93
      113
310
904313A32304000000000000344000
  0
ACAD_PROXY_OBJECT
  5
50
102
{ACAD_REACTORS
330
47
102
}
330
47
100
AcDbProxyObject
 90
      499
 91
      503
 93
      113
310
904313A333040000000000003E4000
  0
ACAD_PROXY_OBJECT
  5
51
102
{ACAD_REACTORS
330
47
102
}
330
47
100
AcDbProxyObject
 90
      499
 91
      503
 93
      113
310
904313A34304000000000000444000
  0
ACAD_PROXY_OBJECT
  5
52
102
{ACAD_REACTORS
330
47
102
}
330
47
100
AcDbProxyObject
 90
      499
 91
      503
 93
      113
310
904313A35304000000000000494000
  0
ACAD_PROXY_OBJECT
  5
53
102
{ACAD_REACTORS
330
47
102
}
330
47
100
AcDbProxyObject
 90
      499
 91
      503
 93
      121
310
905313A3130304000000000000594000
  0
ACAD_PROXY_OBJECT
  5
54
102
{ACAD_REACTORS
330
47
102
}
330
47
100
AcDbProxyObject
 90
      499
 91
      503
 93
      105
310
903323A310000000000000010100
  0
ACAD_PROXY_OBJECT
  5
55
102
{ACAD_REACTORS
330
47
102
}
330
47
100
AcDbProxyObject
 90
      499
 91
      503
 93
      105
310
903343A310000000000000410100
  0
ACAD_PROXY_OBJECT
  5
56
102
{ACAD_REACTORS
330
47
102
}
330
47
100
AcDbProxyObject
 90
      499
 91
      503
 93
      105
310
903383A310000000000000810100
  0
ACAD_PROXY_OBJECT
  5
57
102
{ACAD_REACTORS
330
47
102
}
330
47
100
AcDbProxyObject
 90
      499
 91
      503
 93
      113
310
90431303A310000000000000910100
  0
ACAD_PROXY_OBJECT
  5
58
102
{ACAD_REACTORS
330
47
102
}
330
47
100
AcDbProxyObject
 90
      499
 91
      503
 93
      121
310
9053130303A310000000000001650100
  0
ACAD_PROXY_OBJECT
  5
59
102
{ACAD_REACTORS
330
47
102
}
330
47
100
AcDbProxyObject
 90
      499
 91
      503
 93
      257
310
90E312F31323822203D2031272D3022000000000000200FC000000000000284000
  0
ACAD_PROXY_OBJECT
  5
5A
102
{ACAD_REACTORS
330
47
102
}
330
47
100
AcDbProxyObject
 90
      499
 91
      503
 93
      249
310
90D312F363422203D2031272D3022000000000000240FC000000000000284000
  0
ACAD_PROXY_OBJECT
  5
5B
102
{ACAD_REACTORS
330
47
102
}
330
47
100
AcDbProxyObject
 90
      499
 91
      503
 93
      249
310
90D312F333222203D2031272D3022000000000000280FC000000000000284000
  0
ACAD_PROXY_OBJECT
  5
5C
102
{ACAD_REACTORS
330
47
102
}
330
47
100
AcDbProxyObject
 90
      499
 91
      503
 93
      249
310
90D312F313622203D2031272D30220000000000002C0FC000000000000284000
  0
ACAD_PROXY_OBJECT
  5
5D
102
{ACAD_REACTORS
330
47
102
}
330
47
100
AcDbProxyObject
 90
      499
 91
      503
 93
      249
310
90D332F333222203D2031272D30220000000000002E0FC000000000000284000
  0
ACAD_PROXY_OBJECT
  5
5E
102
{ACAD_REACTORS
330
47
102
}
330
47
100
AcDbProxyObject
 90
      499
 91
      503
 93
      241
310
90C312F3822203D2031272D3022000000000000300FC000000000000284000
  0
ACAD_PROXY_OBJECT
  5
5F
102
{ACAD_REACTORS
330
47
102
}
330
47
100
AcDbProxyObject
 90
      499
 91
      503
 93
      249
310
90D332F313622203D2031272D3022000000000000320FC000000000000284000
  0
ACAD_PROXY_OBJECT
  5
60
102
{ACAD_REACTORS
330
47
102
}
330
47
100
AcDbProxyObject
 90
      499
 91
      503
 93
      241
310
90C312F3422203D2031272D3022000000000000340FC000000000000284000
  0
ACAD_PROXY_OBJECT
  5
61
102
{ACAD_REACTORS
330
47
102
}
330
47
100
AcDbProxyObject
 90
      499
 91
      503
 93
      241
310
90C332F3822203D2031272D3022000000000000360FC000000000000284000
  0
ACAD_PROXY_OBJECT
  5
62
102
{ACAD_REACTORS
330
47
102
}
330
47
100
AcDbProxyObject
 90
      499
 91
      503
 93
      241
310
90C312F3222203D2031272D3022000000000000380FC000000000000284000
  0
ACAD_PROXY_OBJECT
  5
63
102
{ACAD_REACTORS
330
47
102
}
330
47
100
AcDbProxyObject
 90
      499
 91
      503
 93
      241
310
90C332F3422203D2031272D30220000000000003A0FC000000000000284000
  0
ACAD_PROXY_OBJECT
  5
64
102
{ACAD_REACTORS
330
47
102
}
330
47
100
AcDbProxyObject
 90
      499
 91
      503
 93
      161
310
90A3122203D2031272D30224000000000000284000
  0
ACAD_PROXY_OBJECT
  5
65
102
{ACAD_REACTORS
330
47
102
}
330
47
100
AcDbProxyObject
 90
      499
 91
      503
 93
      257
310
90E312D312F3222203D2031272D30220000000000003E0FC000000000000284000
  0
ACAD_PROXY_OBJECT
  5
66
102
{ACAD_REACTORS
330
47
102
}
330
47
100
AcDbProxyObject
 90
      499
 91
      503
 93
      225
310
90A3322203D2031272D302200000000000002100000000000000284000
  0
ACAD_PROXY_OBJECT
  5
67
102
{ACAD_REACTORS
330
47
102
}
330
47
100
AcDbProxyObject
 90
      499
 91
      503
 93
      225
310
90A3622203D2031272D302200000000000006100000000000000284000
  0
ACAD_PROXY_OBJECT
  5
68
102
{ACAD_REACTORS
330
47
102
}
330
47
100
AcDbProxyObject
 90
      499
 91
      503
 93
      249
310
90D31272D3022203D2031272D30220000000000000A100000000000000284000
  0
ACAD_PROXY_OBJECT
  5
2F
102
{ACAD_REACTORS
330
2A
102
}
330
2A
100
AcDbProxyObject
 90
      499
 91
      501
 93
      436
310
42CC9915DA5C99599C985B595049028333333333333E33F0000000000000F90107901411070040501600405405064090741402480A0340
1001
ACAD
1000
AcDbSavedByObjectVersion
1070
     0
  0
ACAD_PROXY_OBJECT
  5
32
102
{ACAD_REACTORS
330
2A
102
}
330
2A
100
AcDbProxyObject
 90
      499
 91
      501
 93
      388
310
4150985CDA58D07406404333333333333E33F0000000000000F90107A41107004050150841D405064090741402480A0350
1001
ACAD
1000
AcDbSavedByObjectVersion
1070
     0
  0
ACAD_PROXY_OBJECT
  5
36
102
{ACAD_REACTORS
330
2A
102
}
330
2A
100
AcDbProxyObject
 90
      499
 91
      501
 93
      428
310
42109C9A59DA1D195B90C409028333333333333E33F0000000000000F9010790141107004050150841D405064090741402480A029950
1001
ACAD
1000
AcDbSavedByObjectVersion
1070
     0
  0
ACAD_PROXY_OBJECT
  5
3A
102
{ACAD_REACTORS
330
2A
102
}
330
2A
100
AcDbProxyObject
 90
      499
 91
      501
 93
      452
310
42D0DBDB1BDC90DA185B99D95104090240C333333333333E33F0000000000000F90108901411070040501508421405064090741402480A0350
1001
ACAD
1000
AcDbSavedByObjectVersion
1070
     0
  0
ACAD_PROXY_OBJECT
  5
34
102
{ACAD_REACTORS
330
2A
102
}
330
2A
100
AcDbProxyObject
 90
      499
 91
      501
 93
      500
310
4290DBDB98D95C1D1D585B10940D028333333333333E33F0000000000000F90107902409070040501000000000018199010841D405064090740C02480A0340
1001
ACAD
1000
AcDbSavedByObjectVersion
1070
     0
  0
ACAD_PROXY_OBJECT
  5
35
102
{ACAD_REACTORS
330
2A
102
}
330
2A
100
AcDbProxyObject
 90
      499
 91
      501
 93
      412
310
40D11A5B50B409028333333333333E33F0000000000000F9010790141107004050150841D405064090741402480A02677FFFFFD0
1001
ACAD
1000
AcDbSavedByObjectVersion
1070
     0
  0
ACAD_PROXY_OBJECT
  5
3D
102
{ACAD_REACTORS
330
2A
102
}
330
2A
100
AcDbProxyObject
 90
      499
 91
      501
 93
      452
310
43115919D950DBDB1BDC93D999916409028333333333333E33F0000000000000F9010790141107004050150841D405064090741402480A0350
1001
ACAD
1000
AcDbSavedByObjectVersion
1070
     0
  0
ACAD_PROXY_OBJECT
  5
39
102
{ACAD_REACTORS
330
2A
102
}
330
2A
100
AcDbProxyObject
 90
      499
 91
      501
 93
      444
310
42D19858D95C185D1D195C9B90F409028333333333333E33F0000000000000F9010790141107004050150841D405064090741402480A0350
1001
ACAD
1000
AcDbSavedByObjectVersion
1070
     0
  0
ACAD_PROXY_OBJECT
  5
2B
102
{ACAD_REACTORS
330
2A
102
}
330
2A
100
AcDbProxyObject
 90
      499
 91
      501
 93
      380
310
41119B185D240901404333333333333E33F0000000000000F9010740A907004050150841D405064090741402480A1B50
1001
ACAD
1000
AcDbSavedByObjectVersion
1070
     0
  0
ACAD_PROXY_OBJECT
  5
2C
102
{ACAD_REACTORS
330
2A
102
}
330
2A
100
AcDbProxyObject
 90
      499
 91
      501
 93
      468
310
43519B185D15DA5D1A115919D95CD0140901404333333333333E33F0000000000000F90107409019070040501600405405064090741402480A1B50
1001
ACAD
1000
AcDbSavedByObjectVersion
1070
     0
  0
ACAD_PROXY_OBJECT
  5
2D
102
{ACAD_REACTORS
330
2A
102
}
330
2A
100
AcDbProxyObject
 90
      499
 91
      501
 93
      404
310
41D1DBDD5C985D5910240902404333333333333E33F0000000000000F9010740A9070040501641D405064090741402480A1B50
1001
ACAD
1000
AcDbSavedByObjectVersion
1070
     0
  0
ACAD_PROXY_OBJECT
  5
2E
102
{ACAD_REACTORS
330
2A
102
}
330
2A
100
AcDbProxyObject
 90
      499
 91
      501
 93
      492
310
4411DBDD5C985D5915DA5D1A115919D95CD0340902404333333333333E33F0000000000000F90107409019070040501600405405064090741402480A1B50
1001
ACAD
1000
AcDbSavedByObjectVersion
1070
     0
  0
ACAD_PROXY_OBJECT
  5
31
102
{ACAD_REACTORS
330
2A
102
}
330
2A
100
AcDbProxyObject
 90
      499
 91
      501
 93
      476
310
41921A5919195B90640502408333333333333E33F0000000000000F901079024090700405020000000000001110200405405064090740C02480A0340
1001
ACAD
1000
AcDbSavedByObjectVersion
1070
     0
  0
ACAD_PROXY_OBJECT
  5
3B
102
{ACAD_REACTORS
330
2A
102
}
330
2A
100
AcDbProxyObject
 90
      499
 91
      501
 93
      428
310
42529A5D1D195C93D999914409028333333333333E33F0000000000000F9010790141107004050150A41D405064090741402480A0350
1001
ACAD
1000
AcDbSavedByObjectVersion
1070
     0
  0
ACAD_PROXY_OBJECT
  5
38
102
{ACAD_REACTORS
330
2A
102
}
330
2A
100
AcDbProxyObject
 90
      499
 91
      501
 93
      444
310
42D31A5B995C185D1D195C9B90E409028333333333333E33F0000000000000F9010790141107004050750841D405064090741402483A0350
1001
ACAD
1000
AcDbSavedByObjectVersion
1070
     0
  0
ACAD_PROXY_OBJECT
  5
3C
102
{ACAD_REACTORS
330
2A
102
}
330
2A
100
AcDbProxyObject
 90
      499
 91
      501
 93
      444
310
42D3DD995C9A185B99D3D999915409028333333333333E33F0000000000000F9010790141107004050150941D405064090741402480A0350
1001
ACAD
1000
AcDbSavedByObjectVersion
1070
     0
  0
ACAD_PROXY_OBJECT
  5
33
102
{ACAD_REACTORS
330
2A
102
}
330
2A
100
AcDbProxyObject
 90
      499
 91
      501
 93
      428
310
425499585B1A5CDD1A58D08409038333333333333E33F0000000000000F9010740A907004050150800405405064090740C02480A1B40
1001
ACAD
1000
AcDbSavedByObjectVersion
1070
     0
  0
ACAD_PROXY_OBJECT
  5
42
102
{ACAD_REACTORS
330
2A
102
}
330
2A
100
AcDbProxyObject
 90
      499
 91
      501
 93
      420
310
4194DA1859195911B40902404333333333333E33F0000000000000F9010740A41107004050150800405405064090840C02480A0B40
1001
ACAD
1000
AcDbSavedByObjectVersion
1070
     0
  0
ACAD_PROXY_OBJECT
  5
41
102
{ACAD_REACTORS
330
2A
102
}
330
2A
100
AcDbProxyObject
 90
      499
 91
      501
 93
      516
310
4454DA18591959081DDA5D1A08195919D95CD1A40902404333333333333E33F0000000000000F901074090142907004050250800405405064090740C02480A0B40
1001
ACAD
1000
AcDbSavedByObjectVersion
1070
     0
  0
ACAD_PROXY_OBJECT
  5
3E
102
{ACAD_REACTORS
330
2A
102
}
330
2A
100
AcDbProxyObject
 90
      499
 91
      501
 93
      532
310
4394DA1859195CC81BD98811DC985E5174090240C333333333333E33F0000000000000F901079024090741D01000000000000111010841D405064090740C02480A0340
1001
ACAD
1000
AcDbSavedByObjectVersion
1070
     0
  0
ACAD_PROXY_OBJECT
  5
3F
102
{ACAD_REACTORS
330
2A
102
}
330
2A
100
AcDbProxyObject
 90
      499
 91
      501
 93
      476
310
41D4DAD95D18DA1E51840502408333333333333E33F0000000000000F901079024090741D01000000000000111010B41D405064090741802480A0340
1001
ACAD
1000
AcDbSavedByObjectVersion
1070
     0
  0
ACAD_PROXY_OBJECT
  5
37
102
{ACAD_REACTORS
330
2A
102
}
330
2A
100
AcDbProxyObject
 90
      499
 91
      501
 93
      412
310
41D51A1A58DAD95B90D409028333333333333E33F0000000000000F9010790141107004050150C41D405064090741402480A0350
1001
ACAD
1000
AcDbSavedByObjectVersion
1070
     0
  0
ACAD_PROXY_OBJECT
  5
30
102
{ACAD_REACTORS
330
2A
102
}
330
2A
100
AcDbProxyObject
 90
      499
 91
      501
 93
      420
310
4255DA5C99599C985B595059028333333333333E33F0000000000000F90107901411070040501600405405064090740C02480A0340
1001
ACAD
1000
AcDbSavedByObjectVersion
1070
     0
  0
ACAD_PROXY_OBJECT
  5
40
102
{ACAD_REACTORS
330
2A
102
}
330
2A
100
AcDbProxyObject
 90
      499
 91
      501
 93
      404
310
41560B54985E51940902404000000000000E03F0000000000000F9010740501907004050150841D405064090740C02480A1B40
1001
ACAD
1000
AcDbSavedByObjectVersion
1070
     0
  0
XRECORD
  5
4DA
102
{ACAD_REACTORS
330
4D1
102
}
330
4D1
100
AcDbXrecord
 90
        0
  0
XRECORD
  5
4F0
102
{ACAD_REACTORS
330
4D1
102
}
330
4D1
100
AcDbXrecord
1000
DSTYLE
1002
{
1070
   171
 70
     2
1070
   143
 40
25.4
1070
   274
 70
     2
1070
    41
 40
0.18
1070
   141
 40
0.09
1070
   271
 70
     4
1070
    43
 40
0.38
1070
   278
 70
    46
1070
    44
 40
0.18
1070
    42
 40
0.0625
1070
   147
 40
0.09
1070
    77
 70
     0
1070
   272
 70
     4
1070
    73
 70
     1
1070
   172
 70
     0
1070
    74
 70
     1
1070
   283
 70
     1
1070
   340
340
11
1070
   140
 40
0.18
1070
   284
 70
     0
1070
    78
 70
     0
1002
}
  0
XRECORD
  5
4DB
102
{ACAD_REACTORS
330
4D1
102
}
330
4D1
100
AcDbXrecord
  1
{296E5DC8-7199-40A8-8635-340BA19E5CD7}
  0
XRECORD
  5
4D4
102
{ACAD_REACTORS
330
4D1
102
}
330
4D1
100
AcDbXrecord
  1

  0
XRECORD
  5
4D9
102
{ACAD_REACTORS
330
4D1
102
}
330
4D1
100
AcDbXrecord
 90
        4
  0
XRECORD
  5
4D6
102
{ACAD_REACTORS
330
4D1
102
}
330
4D1
100
AcDbXrecord
340
1A
  0
XRECORD
  5
4D8
102
{ACAD_REACTORS
330
4D1
102
}
330
4D1
100
AcDbXrecord
 90
    10781
  0
XRECORD
  5
4D7
102
{ACAD_REACTORS
330
4D1
102
}
330
4D1
100
AcDbXrecord
340
19
  0
XRECORD
  5
4DD
102
{ACAD_REACTORS
330
4D1
102
}
330
4D1
100
AcDbXrecord
 40
0.0
  0
XRECORD
  5
4E0
102
{ACAD_REACTORS
330
4D1
102
}
330
4D1
100
AcDbXrecord
340
0
  0
XRECORD
  5
4E6
102
{ACAD_REACTORS
330
4D1
102
}
330
4D1
100
AcDbXrecord
 10
0.0
 20
0.0
 30
0.0
  0
XRECORD
  5
4E2
102
{ACAD_REACTORS
330
4D1
102
}
330
4D1
100
AcDbXrecord
 10
0.0
 20
0.0
 30
0.0
  0
XRECORD
  5
4E5
102
{ACAD_REACTORS
330
4D1
102
}
330
4D1
100
AcDbXrecord
 10
0.0
 20
0.0
 30
0.0
  0
XRECORD
  5
4E3
102
{ACAD_REACTORS
330
4D1
102
}
330
4D1
100
AcDbXrecord
 10
0.0
 20
0.0
 30
0.0
  0
XRECORD
  5
4E4
102
{ACAD_REACTORS
330
4D1
102
}
330
4D1
100
AcDbXrecord
 10
0.0
 20
0.0
 30
0.0
  0
XRECORD
  5
4E1
102
{ACAD_REACTORS
330
4D1
102
}
330
4D1
100
AcDbXrecord
 10
0.0
 20
0.0
 30
0.0
  0
XRECORD
  5
4DE
102
{ACAD_REACTORS
330
4D1
102
}
330
4D1
100
AcDbXrecord
340
0
  0
XRECORD
  5
4DF
102
{ACAD_REACTORS
330
4D1
102
}
330
4D1
100
AcDbXrecord
 70
     0
  0
XRECORD
  5
4D5
102
{ACAD_REACTORS
330
4D1
102
}
330
4D1
100
AcDbXrecord
  1

  0
XRECORD
  5
4D2
102
{ACAD_REACTORS
330
4D1
102
}
330
4D1
100
AcDbXrecord
 90
        1
  0
XRECORD
  5
4D3
102
{ACAD_REACTORS
330
4D1
102
}
330
4D1
100
AcDbXrecord
 90
       70
  0
XRECORD
  5
4E9
102
{ACAD_REACTORS
330
4D1
102
}
330
4D1
100
AcDbXrecord
340
0
  0
XRECORD
  5
4EF
102
{ACAD_REACTORS
330
4D1
102
}
330
4D1
100
AcDbXrecord
 10
0.0
 20
0.0
 30
0.0
  0
XRECORD
  5
4EB
102
{ACAD_REACTORS
330
4D1
102
}
330
4D1
100
AcDbXrecord
 10
0.0
 20
0.0
 30
0.0
  0
XRECORD
  5
4EE
102
{ACAD_REACTORS
330
4D1
102
}
330
4D1
100
AcDbXrecord
 10
0.0
 20
0.0
 30
0.0
  0
XRECORD
  5
4EC
102
{ACAD_REACTORS
330
4D1
102
}
330
4D1
100
AcDbXrecord
 10
0.0
 20
0.0
 30
0.0
  0
XRECORD
  5
4ED
102
{ACAD_REACTORS
330
4D1
102
}
330
4D1
100
AcDbXrecord
 10
0.0
 20
0.0
 30
0.0
  0
XRECORD
  5
4EA
102
{ACAD_REACTORS
330
4D1
102
}
330
4D1
100
AcDbXrecord
 10
0.0
 20
0.0
 30
0.0
  0
XRECORD
  5
4E7
102
{ACAD_REACTORS
330
4D1
102
}
330
4D1
100
AcDbXrecord
340
0
  0
XRECORD
  5
4E8
102
{ACAD_REACTORS
330
4D1
102
}
330
4D1
100
AcDbXrecord
 70
     0
  0
XRECORD
  5
4DC
102
{ACAD_REACTORS
330
4D1
102
}
330
4D1
100
AcDbXrecord
  1
{FAEB1C32-E019-11D5-929B-00C0DF256EC4}
  0
DICTIONARYVAR
  5
4FA
102
{ACAD_REACTORS
330
4F1
102
}
330
4F1
100
DictionaryVariables
280
     0
  1
1:1
  0
DICTIONARYVAR
  5
4F6
102
{ACAD_REACTORS
330
4F1
102
}
330
4F1
100
DictionaryVariables
280
     0
  1
2
  0
DICTIONARYVAR
  5
4F7
102
{ACAD_REACTORS
330
4F1
102
}
330
4F1
100
DictionaryVariables
280
     0
  1
1
  0
DICTIONARYVAR
  5
4FB
102
{ACAD_REACTORS
330
4F1
102
}
330
4F1
100
DictionaryVariables
280
     0
  1
1
  0
DICTIONARY
  5
4FE
330
45
100
AcDbDictionary
280
     1
  3
ACAD_XREC_ROUNDTRIP
360
4FF
  0
DICTIONARY
  5
4FC
330
44
100
AcDbDictionary
280
     1
  3
ACAD_XREC_ROUNDTRIP
360
4FD
  0
DICTIONARY
  5
500
330
46
100
AcDbDictionary
280
     1
  3
ACAD_XREC_ROUNDTRIP
360
501
  0
XRECORD
  5
4FF
102
{ACAD_REACTORS
330
4FE
102
}
330
4FE
100
AcDbXrecord
102
MATERIAL
148
0.0
149
0.0
149
0.0
 93
        0
 94
      127
282
     0
 72
     1
 77
     1
171
     1
175
     1
179
     1
273
     0
  0
XRECORD
  5
4FD
102
{ACAD_REACTORS
330
4FC
102
}
330
4FC
100
AcDbXrecord
102
MATERIAL
148
0.0
149
0.0
149
0.0
 93
        0
 94
      127
282
     0
 72
     1
 77
     1
171
     1
175
     1
179
     1
273
     0
  0
XRECORD
  5
501
102
{ACAD_REACTORS
330
500
102
}
330
500
100
AcDbXrecord
102
MATERIAL
148
0.0
149
0.0
149
0.0
 93
        0
 94
      127
282
     0
 72
     1
 77
     1
171
     1
175
     1
179
     1
273
     0
  0
ENDSEC
  0
EOF
